  0
SECTION
  2
HEADER
  9
$ACADVER
  1
AC1014
  9
$ACADMAINTVER
 70
     9
  9
$DWGCODEPAGE
  3
ANSI_1252
  9
$INSBASE
 10
0.0
 20
0.0
 30
0.0
  9
$EXTMIN
 10
0.0
 20
0.0
 30
0.0
  9
$EXTMAX
 10
279.4
 20
215.9
 30
0.0
  9
$LIMMIN
 10
0.0
 20
0.0
  9
$LIMMAX
 10
279.4
 20
215.9
  9
$ORTHOMODE
 70
     0
  9
$REGENMODE
 70
     1
  9
$FILLMODE
 70
     1
  9
$QTEXTMODE
 70
     0
  9
$MIRRTEXT
 70
     1
  9
$DRAGMODE
 70
     2
  9
$LTSCALE
 40
1.0
  9
$OSMODE
 70
    37
  9
$ATTMODE
 70
     1
  9
$TEXTSIZE
 40
3.5
  9
$TRACEWID
 40
1.0
  9
$TEXTSTYLE
  7
STANDARD
  9
$CLAYER
  8
0
  9
$CELTYPE
  6
BYLAYER
  9
$CECOLOR
 62
   256
  9
$CELTSCALE
 40
1.0
  9
$DELOBJ
 70
     1
  9
$DISPSILH
 70
     0
  9
$DIMSCALE
 40
1.0
  9
$DIMASZ
 40
3.302
  9
$DIMEXO
 40
1.0
  9
$DIMDLI
 40
3.75
  9
$DIMRND
 40
0.0
  9
$DIMDLE
 40
0.0
  9
$DIMEXE
 40
1.0
  9
$DIMTP
 40
0.0
  9
$DIMTM
 40
0.0
  9
$DIMTXT
 40
3.5
  9
$DIMCEN
 40
2.5
  9
$DIMTSZ
 40
0.0
  9
$DIMTOL
 70
     0
  9
$DIMLIM
 70
     0
  9
$DIMTIH
 70
     1
  9
$DIMTOH
 70
     1
  9
$DIMSE1
 70
     0
  9
$DIMSE2
 70
     0
  9
$DIMTAD
 70
     1
  9
$DIMZIN
 70
     1
  9
$DIMBLK
  1

  9
$DIMASO
 70
     1
  9
$DIMSHO
 70
     1
  9
$DIMPOST
  1

  9
$DIMAPOST
  1

  9
$DIMALT
 70
     0
  9
$DIMALTD
 70
     3
  9
$DIMALTF
 40
0.0393700787
  9
$DIMLFAC
 40
5.0
  9
$DIMTOFL
 70
     1
  9
$DIMTVP
 40
0.0
  9
$DIMTIX
 70
     0
  9
$DIMSOXD
 70
     0
  9
$DIMSAH
 70
     0
  9
$DIMBLK1
  1

  9
$DIMBLK2
  1

  9
$DIMSTYLE
  2
ISO-25
  9
$DIMCLRD
 70
     0
  9
$DIMCLRE
 70
     0
  9
$DIMCLRT
 70
     0
  9
$DIMTFAC
 40
1.0
  9
$DIMGAP
 40
1.524
  9
$DIMJUST
 70
     0
  9
$DIMSD1
 70
     0
  9
$DIMSD2
 70
     0
  9
$DIMTOLJ
 70
     0
  9
$DIMTZIN
 70
     1
  9
$DIMALTZ
 70
     0
  9
$DIMALTTZ
 70
     0
  9
$DIMFIT
 70
     3
  9
$DIMUPT
 70
     0
  9
$DIMUNIT
 70
     2
  9
$DIMDEC
 70
     2
  9
$DIMTDEC
 70
     2
  9
$DIMALTU
 70
     2
  9
$DIMALTTD
 70
     3
  9
$DIMTXSTY
  7
STANDARD
  9
$DIMAUNIT
 70
     0
  9
$LUNITS
 70
     2
  9
$LUPREC
 70
     2
  9
$SKETCHINC
 40
1.0
  9
$FILLETRAD
 40
10.0
  9
$AUNITS
 70
     0
  9
$AUPREC
 70
     2
  9
$MENU
  1
.
  9
$ELEVATION
 40
0.0
  9
$PELEVATION
 40
0.0
  9
$THICKNESS
 40
0.0
  9
$LIMCHECK
 70
     0
  9
$CHAMFERA
 40
0.0
  9
$CHAMFERB
 40
0.0
  9
$CHAMFERC
 40
0.0
  9
$CHAMFERD
 40
0.0
  9
$SKPOLY
 70
     0
  9
$TDCREATE
 40
2459180.646896412
  9
$TDUPDATE
 40
2459180.646896667
  9
$TDINDWG
 40
0.0000000116
  9
$TDUSRTIMER
 40
0.0000000116
  9
$USRTIMER
 70
     1
  9
$ANGBASE
 50
0.0
  9
$ANGDIR
 70
     0
  9
$PDMODE
 70
     0
  9
$PDSIZE
 40
-1.0
  9
$PLINEWID
 40
0.0
  9
$COORDS
 70
     1
  9
$SPLFRAME
 70
     0
  9
$SPLINETYPE
 70
     6
  9
$SPLINESEGS
 70
     8
  9
$ATTDIA
 70
     0
  9
$ATTREQ
 70
     1
  9
$HANDLING
 70
     1
  9
$HANDSEED
  5
151
  9
$SURFTAB1
 70
     6
  9
$SURFTAB2
 70
     6
  9
$SURFTYPE
 70
     6
  9
$SURFU
 70
     6
  9
$SURFV
 70
     6
  9
$UCSNAME
  2

  9
$UCSORG
 10
0.0
 20
0.0
 30
0.0
  9
$UCSXDIR
 10
1.0
 20
0.0
 30
0.0
  9
$UCSYDIR
 10
0.0
 20
1.0
 30
0.0
  9
$PUCSNAME
  2

  9
$PUCSORG
 10
0.0
 20
0.0
 30
0.0
  9
$PUCSXDIR
 10
1.0
 20
0.0
 30
0.0
  9
$PUCSYDIR
 10
0.0
 20
1.0
 30
0.0
  9
$USERI1
 70
     0
  9
$USERI2
 70
     0
  9
$USERI3
 70
     0
  9
$USERI4
 70
     0
  9
$USERI5
 70
     0
  9
$USERR1
 40
0.0
  9
$USERR2
 40
0.0
  9
$USERR3
 40
0.0
  9
$USERR4
 40
0.0
  9
$USERR5
 40
0.0
  9
$WORLDVIEW
 70
     1
  9
$SHADEDGE
 70
     3
  9
$SHADEDIF
 70
    70
  9
$TILEMODE
 70
     1
  9
$MAXACTVP
 70
    64
  9
$PINSBASE
 10
0.0
 20
0.0
 30
0.0
  9
$PLIMCHECK
 70
     0
  9
$PEXTMIN
 10
1.0000000000E+20
 20
1.0000000000E+20
 30
1.0000000000E+20
  9
$PEXTMAX
 10
-1.0000000000E+20
 20
-1.0000000000E+20
 30
-1.0000000000E+20
  9
$PLIMMIN
 10
0.0
 20
0.0
  9
$PLIMMAX
 10
420.0
 20
297.0
  9
$UNITMODE
 70
     0
  9
$VISRETAIN
 70
     1
  9
$PLINEGEN
 70
     0
  9
$PSLTSCALE
 70
     1
  9
$TREEDEPTH
 70
  3020
  9
$PICKSTYLE
 70
     1
  9
$CMLSTYLE
  2
STANDARD
  9
$CMLJUST
 70
     0
  9
$CMLSCALE
 40
20.0
  9
$PROXYGRAPHICS
 70
     1
  9
$MEASUREMENT
 70
     1
  0
ENDSEC
  0
SECTION
  2
CLASSES
  0
CLASS
  1
ACDBDICTIONARYWDFLT
  2
AcDbDictionaryWithDefault
  3
ObjectDBX Classes
 90
        0
280
     0
281
     0
  0
CLASS
  1
VISUALSTYLE
  2
AcDbVisualStyle
  3
ObjectDBX Classes
 90
     4095
280
     0
281
     0
  0
CLASS
  1
MATERIAL
  2
AcDbMaterial
  3
ObjectDBX Classes
 90
     1153
280
     0
281
     0
  0
CLASS
  1
SCALE
  2
AcDbScale
  3
ObjectDBX Classes
 90
     1153
280
     0
281
     0
  0
CLASS
  1
TABLESTYLE
  2
AcDbTableStyle
  3
ObjectDBX Classes
 90
     4095
280
     0
281
     0
  0
CLASS
  1
MLEADERSTYLE
  2
AcDbMLeaderStyle
  3
ACDB_MLEADERSTYLE_CLASS
 90
     4095
280
     0
281
     0
  0
CLASS
  1
SUN
  2
AcDbSun
  3
SCENEOE
 90
     1153
280
     0
281
     0
  0
CLASS
  1
XRECORD
  2
AcDbXrecord
  3
ObjectDBX Classes
 90
        0
280
     0
281
     0
  0
CLASS
  1
LWPOLYLINE
  2
AcDbPolyline
  3
ObjectDBX Classes
 90
        0
280
     0
281
     1
  0
CLASS
  1
HATCH
  2
AcDbHatch
  3
ObjectDBX Classes
 90
        0
280
     0
281
     1
  0
ENDSEC
  0
SECTION
  2
TABLES
  0
TABLE
  2
VPORT
  5
8
330
0
100
AcDbSymbolTable
 70
     1
  0
VPORT
  5
29
330
8
100
AcDbSymbolTableRecord
100
AcDbViewportTableRecord
  2
*ACTIVE
 70
     0
 10
0.0
 20
0.0
 11
1.0
 21
1.0
 12
139.7
 22
107.95
 13
0.0
 23
0.0
 14
10.0
 24
10.0
 15
10.0
 25
10.0
 16
0.0
 26
0.0
 36
1.0
 17
0.0
 27
0.0
 37
0.0
 40
215.9
 41
1.2941176471
 42
50.0
 43
0.0
 44
0.0
 50
0.0
 51
0.0
 71
     0
 72
  2000
 73
     1
 74
     3
 75
     0
 76
     0
 77
     0
 78
     0
  0
ENDTAB
  0
TABLE
  2
LTYPE
  5
5
330
0
100
AcDbSymbolTable
 70
     6
  0
LTYPE
  5
14
330
5
100
AcDbSymbolTableRecord
100
AcDbLinetypeTableRecord
  2
BYBLOCK
 70
     0
  3

 72
    65
 73
     0
 40
0.0
  0
LTYPE
  5
15
330
5
100
AcDbSymbolTableRecord
100
AcDbLinetypeTableRecord
  2
BYLAYER
 70
     0
  3

 72
    65
 73
     0
 40
0.0
  0
LTYPE
  5
16
330
5
100
AcDbSymbolTableRecord
100
AcDbLinetypeTableRecord
  2
CONTINUOUS
 70
     0
  3
Solid line
 72
    65
 73
     0
 40
0.0
  0
LTYPE
  5
6E
330
5
100
AcDbSymbolTableRecord
100
AcDbLinetypeTableRecord
  2
HIDDEN
 70
     0
  3
Hidden __ __ __ __ __ __ __ __ __ __ __ __ __ __
 72
    65
 73
     2
 40
1.905
 49
1.27
 74
     0
 49
-0.635
 74
     0
  0
LTYPE
  5
6F
330
5
100
AcDbSymbolTableRecord
100
AcDbLinetypeTableRecord
  2
PHANTOM
 70
     0
  3
Phantom ______  __  __  ______  __  __  ______
 72
    65
 73
     6
 40
12.7
 49
6.35
 74
     0
 49
-1.27
 74
     0
 49
1.27
 74
     0
 49
-1.27
 74
     0
 49
1.27
 74
     0
 49
-1.27
 74
     0
  0
LTYPE
  5
70
330
5
100
AcDbSymbolTableRecord
100
AcDbLinetypeTableRecord
  2
CENTER
 70
     0
  3
Center ____ _ ____ _ ____ _ ____ _ ____ _ ____
 72
    65
 73
     4
 40
10.16
 49
6.35
 74
     0
 49
-1.27
 74
     0
 49
1.27
 74
     0
 49
-1.27
 74
     0
  0
LTYPE
  5
71
330
5
100
AcDbSymbolTableRecord
100
AcDbLinetypeTableRecord
  2
CENTERX2
 70
     0
  3
Center (2x) ________  __  ________  __  _____
 72
    65
 73
     4
 40
20.32
 49
12.7
 74
     0
 49
-2.54
 74
     0
 49
2.54
 74
     0
 49
-2.54
 74
     0
  0
LTYPE
  5
72
330
5
100
AcDbSymbolTableRecord
100
AcDbLinetypeTableRecord
  2
DOT2
 70
     0
  3
Dot (.5x) ........................................
 72
    65
 73
     2
 40
0.635
 49
0.0
 74
     0
 49
-0.635
 74
     0
  0
ENDTAB
  0
TABLE
  2
LAYER
  5
2
330
0
100
AcDbSymbolTable
 70
     1
  0
LAYER
  5
10
330
2
100
AcDbSymbolTableRecord
100
AcDbLayerTableRecord
  2
0
 70
     0
 62
     7
  6
CONTINUOUS
  0
ENDTAB
  0
TABLE
  2
STYLE
  5
3
330
0
100
AcDbSymbolTable
 70
     1
  0
STYLE
  5
11
330
3
100
AcDbSymbolTableRecord
100
AcDbTextStyleTableRecord
  2
STANDARD
 70
     0
 40
0.0
 41
1.0
 50
0.0
 71
     0
 42
3.5
  3
txt
  4

  0
ENDTAB
  0
TABLE
  2
VIEW
  5
6
330
0
100
AcDbSymbolTable
 70
     0
  0
ENDTAB
  0
TABLE
  2
UCS
  5
7
330
0
100
AcDbSymbolTable
 70
     0
  0
ENDTAB
  0
TABLE
  2
APPID
  5
9
330
0
100
AcDbSymbolTable
 70
     1
  0
APPID
  5
12
330
9
100
AcDbSymbolTableRecord
100
AcDbRegAppTableRecord
  2
ACAD
 70
     0
  0
ENDTAB
  0
TABLE
  2
DIMSTYLE
  5
A
330
0
100
AcDbSymbolTable
 70
     1
  0
DIMSTYLE
105
27
330
A
100
AcDbSymbolTableRecord
100
AcDbDimStyleTableRecord
  2
ISO-25
 70
     0
  3

  4

  5

  6

  7

 40
1.0
 41
2.5
 42
0.625
 43
3.75
 44
1.25
 45
0.0
 46
0.0
 47
0.0
 48
0.0
140
2.5
141
2.5
142
0.0
143
0.0393700787
144
1.0
145
0.0
146
1.0
147
0.625
 71
     0
 72
     0
 73
     0
 74
     0
 75
     0
 76
     0
 77
     1
 78
     8
170
     0
171
     3
172
     1
173
     0
174
     0
175
     0
176
     0
177
     0
178
     0
270
     2
271
     2
272
     2
273
     2
274
     3
340
11
275
     0
280
     0
281
     0
282
     0
283
     0
284
     8
285
     0
286
     0
287
     3
288
     0
  0
ENDTAB
  0
TABLE
  2
BLOCK_RECORD
  5
1
330
0
100
AcDbSymbolTable
 70
     1
  0
BLOCK_RECORD
  5
1F
330
1
100
AcDbSymbolTableRecord
100
AcDbBlockTableRecord
  2
*MODEL_SPACE
  0
BLOCK_RECORD
  5
1B
330
1
100
AcDbSymbolTableRecord
100
AcDbBlockTableRecord
  2
*PAPER_SPACE
  0
BLOCK_RECORD
  5
23
330
1
100
AcDbSymbolTableRecord
100
AcDbBlockTableRecord
  2
*PAPER_SPACE0
  0
ENDTAB
  0
ENDSEC
  0
SECTION
  2
BLOCKS
  0
BLOCK
  5
20
330
1F
100
AcDbEntity
  8
0
100
AcDbBlockBegin
  2
*MODEL_SPACE
 70
     0
 10
0.0
 20
0.0
 30
0.0
  3
*MODEL_SPACE
  1

  0
ENDBLK
  5
21
330
1F
100
AcDbEntity
  8
0
100
AcDbBlockEnd
  0
BLOCK
  5
1C
330
1B
100
AcDbEntity
 67
     1
  8
0
100
AcDbBlockBegin
  2
*PAPER_SPACE
 70
     0
 10
0.0
 20
0.0
 30
0.0
  3
*PAPER_SPACE
  1

  0
ENDBLK
  5
1D
330
1B
100
AcDbEntity
 67
     1
  8
0
100
AcDbBlockEnd
  0
BLOCK
  5
24
330
23
100
AcDbEntity
  8
0
100
AcDbBlockBegin
  2
*PAPER_SPACE0
 70
     0
 10
0.0
 20
0.0
 30
0.0
  3
*PAPER_SPACE0
  1

  0
ENDBLK
  5
25
330
23
100
AcDbEntity
  8
0
100
AcDbBlockEnd
  0
ENDSEC
  0
SECTION
  2
ENTITIES
  0
LINE
  5
73
330
1F
100
AcDbEntity
  8
0
  6
CONTINUOUS
 62
     7
100
AcDbLine
 10
97.6711009174
 20
67.1171346391
 30
0.0
 11
437.6711009174
 21
67.1171346391
 31
0.0
  0
LINE
  5
74
330
1F
100
AcDbEntity
  8
0
  6
CONTINUOUS
 62
     7
100
AcDbLine
 10
428.3113758159
 20
105.8469681011
 30
0.0
 11
107.0334512753
 21
105.8469681011
 31
0.0
  0
SPLINE
  5
75
330
1F
100
AcDbEntity
  8
0
  6
CONTINUOUS
 62
     7
100
AcDbSpline
210
0.0
220
0.0
230
1.0
 70
     8
 71
     3
 72
    13
 73
     9
 74
     0
 42
0.00000001
 43
0.00000001
 40
0.0
 40
0.0
 40
0.0
 40
0.0
 40
0.0644369722058259
 40
0.2347190102865198
 40
0.4831219094164528
 40
0.7354001300668229
 40
0.9619487251901073
 40
1.0
 40
1.0
 40
1.0
 40
1.0
 10
97.67187976932776
 20
99.13141453927601
 30
0.0
 10
97.67178030682847
 20
99.13716793716922
 30
0.0
 10
97.67141800334653
 20
99.15812534427658
 30
0.0
 10
97.6887893980413
 20
99.25690283747626
 30
0.0
 10
97.76938612359933
 20
99.39710877876367
 30
0.0
 10
97.91426270633538
 20
99.50581162173897
 30
0.0
 10
98.04659828171272
 20
99.54116140741311
 30
0.0
 10
98.09366559480195
 20
99.53784152870101
 30
0.0
 10
98.100434197014
 20
99.53736410738844
 30
0.0
  0
SPLINE
  5
76
330
1F
100
AcDbEntity
  8
0
  6
CONTINUOUS
 62
     7
100
AcDbSpline
210
0.0
220
0.0
230
1.0
 70
     8
 71
     3
 72
    18
 73
    14
 74
     0
 42
0.00000001
 43
0.00000001
 40
0.0
 40
0.0
 40
0.0
 40
0.0
 40
0.0485352039535325
 40
0.0926712562527231
 40
0.137902652132527
 40
0.1946171384992871
 40
0.2626563758414802
 40
0.3672019095752903
 40
0.4899157359725411
 40
0.634370889117942
 40
0.8019143241618333
 40
0.9427895954018926
 40
1.0
 40
1.0
 40
1.0
 40
1.0
 10
102.6711391511231
 20
99.54821087021547
 30
0.0
 10
102.8827212720264
 20
99.56580391465492
 30
0.0
 10
103.2867080557947
 20
99.59939539870582
 30
0.0
 10
103.8215620322816
 20
99.8894785621875
 30
0.0
 10
104.3082364640896
 20
100.2902795389133
 30
0.0
 10
104.7790628724925
 20
100.8510723848547
 30
0.0
 10
105.3190202757219
 20
101.6609167541736
 30
0.0
 10
105.9057878212833
 20
102.7577566293008
 30
0.0
 10
106.4937514105777
 20
104.1771540414118
 30
0.0
 10
107.0682134506124
 20
105.8368360545072
 30
0.0
 10
107.4812397998609
 20
107.5704397937215
 30
0.0
 10
107.6543065678729
 20
108.9612834978567
 30
0.0
 10
107.6673373988861
 20
109.7040762707402
 30
0.0
 10
107.6711009174312
 20
109.9186070533897
 30
0.0
  0
LINE
  5
77
330
1F
100
AcDbEntity
  8
0
  6
CONTINUOUS
 62
     7
100
AcDbLine
 10
98.0998701445
 20
99.5392816572
 30
0.0
 11
102.6711009174
 21
99.5392816572
 31
0.0
  0
ARC
  5
78
330
1F
100
AcDbEntity
  8
0
  6
CONTINUOUS
 62
     7
100
AcDbCircle
 10
96.1711009174
 20
68.6171346391
 30
0.0
 40
1.5
100
AcDbArc
 50
270.0
 51
0.0
  0
ARC
  5
79
330
1F
100
AcDbEntity
  8
0
  6
CONTINUOUS
 62
     7
100
AcDbCircle
 10
82.6711009174
 20
72.1171346391
 30
0.0
 40
5.000000000000014
100
AcDbArc
 50
180.0
 51
270.0
  0
LINE
  5
7A
330
1F
100
AcDbEntity
  8
0
  6
CONTINUOUS
 62
     7
100
AcDbLine
 10
82.6711009174
 20
67.1171346391
 30
0.0
 11
96.1711009174
 21
67.1171346391
 31
0.0
  0
SPLINE
  5
7B
330
1F
100
AcDbEntity
  8
0
  6
CONTINUOUS
 62
     7
100
AcDbSpline
210
0.0
220
0.0
230
1.0
 70
     8
 71
     3
 72
    18
 73
    14
 74
     0
 42
0.00000001
 43
0.00000001
 40
0.0
 40
0.0
 40
0.0
 40
0.0
 40
0.0748782219133931
 40
0.2210154600461063
 40
0.3719951232180949
 40
0.5302374588020384
 40
0.6588728432987919
 40
0.7658398254159551
 40
0.8309924496388144
 40
0.8843378766181244
 40
0.9319526288962173
 40
0.980195548378656
 40
1.0
 40
1.0
 40
1.0
 40
1.0
 10
427.6711009174312
 20
109.9186070533897
 30
0.0
 10
427.6774545378681
 20
109.6375755575183
 30
0.0
 10
427.6962082997487
 20
108.8080646027935
 30
0.0
 10
427.8981439158108
 20
107.3905222678426
 30
0.0
 10
428.331207881194
 20
105.6479431943279
 30
0.0
 10
428.9217959871063
 20
103.97606731705
 30
0.0
 10
429.5683362265935
 20
102.4737831317851
 30
0.0
 10
430.201323711406
 20
101.371321988201
 30
0.0
 10
430.7619794847306
 20
100.5902471360697
 30
0.0
 10
431.2644766119986
 20
100.0747799623809
 30
0.0
 10
431.803589938515
 20
99.72255484678618
 30
0.0
 10
432.289202114103
 20
99.5366464201213
 30
0.0
 10
432.5844474635292
 20
99.55954634141317
 30
0.0
 10
432.6703754302426
 20
99.56621111590776
 30
0.0
  0
LINE
  5
7C
330
1F
100
AcDbEntity
  8
0
  6
CONTINUOUS
 62
     7
100
AcDbLine
 10
432.6711009174
 20
99.5392816572
 30
0.0
 11
437.2423316903
 21
99.5392816572
 31
0.0
  0
SPLINE
  5
7D
330
1F
100
AcDbEntity
  8
0
  6
CONTINUOUS
 62
     7
100
AcDbSpline
210
0.0
220
0.0
230
1.0
 70
     8
 71
     3
 72
    13
 73
     9
 74
     0
 42
0.00000001
 43
0.00000001
 40
0.0
 40
0.0
 40
0.0
 40
0.0
 40
0.1650835389757779
 40
0.4223791239175132
 40
0.6589540798306909
 40
0.8424778038776964
 40
0.9886601495733788
 40
1.0
 40
1.0
 40
1.0
 40
1.0
 10
437.2408296607128
 20
99.53573990746139
 30
0.0
 10
437.2774520640605
 20
99.53393528651769
 30
0.0
 10
437.3711533424419
 20
99.5293180229314
 30
0.0
 10
437.5300123045303
 20
99.44176975909164
 30
0.0
 10
437.634262958642
 20
99.30025754764439
 30
0.0
 10
437.6702975604161
 20
99.18310842187921
 30
0.0
 10
437.6712647418226
 20
99.12201852156885
 30
0.0
 10
437.6709767850074
 20
99.11778814501614
 30
0.0
 10
437.6709560553116
 20
99.11748360483999
 30
0.0
  0
ARC
  5
7E
330
1F
100
AcDbEntity
  8
0
  6
CONTINUOUS
 62
     7
100
AcDbCircle
 10
452.6711009174
 20
72.1171346391
 30
0.0
 40
5.0
100
AcDbArc
 50
270.0
 51
0.0
  0
LINE
  5
7F
330
1F
100
AcDbEntity
  8
0
  6
CONTINUOUS
 62
     7
100
AcDbLine
 10
439.1711009174
 20
67.1171346391
 30
0.0
 11
452.6711009174
 21
67.1171346391
 31
0.0
  0
ARC
  5
80
330
1F
100
AcDbEntity
  8
0
  6
CONTINUOUS
 62
     7
100
AcDbCircle
 10
439.1711009174
 20
68.6171346391
 30
0.0
 40
1.500000000000057
100
AcDbArc
 50
180.0
 51
270.0
  0
LINE
  5
81
330
1F
100
AcDbEntity
  8
0
  6
CONTINUOUS
 62
     7
100
AcDbLine
 10
437.6711009174
 20
98.9686070115
 30
0.0
 11
97.6711009174
 21
98.9686070115
 31
0.0
  0
LINE
  5
82
330
1F
100
AcDbEntity
  8
0
  6
CONTINUOUS
 62
     7
100
AcDbLine
 10
437.6711009174
 20
97.3333185772
 30
0.0
 11
437.6711009174
 21
73.9954957287
 31
0.0
  0
LINE
  5
83
330
1F
100
AcDbEntity
  8
0
  6
CONTINUOUS
 62
     7
100
AcDbLine
 10
97.6711009174
 20
73.9954957287
 30
0.0
 11
437.6711009174
 21
73.9954957287
 31
0.0
  0
LINE
  5
84
330
1F
100
AcDbEntity
  8
0
  6
CONTINUOUS
 62
     7
100
AcDbLine
 10
97.6711009174
 20
97.3333185772
 30
0.0
 11
97.6711009174
 21
73.9954957287
 31
0.0
  0
LINE
  5
85
330
1F
100
AcDbEntity
  8
0
  6
CONTINUOUS
 62
     7
100
AcDbLine
 10
437.6711009174
 20
73.9954957287
 30
0.0
 11
437.6711009174
 21
67.1171346391
 31
0.0
  0
LINE
  5
86
330
1F
100
AcDbEntity
  8
0
  6
CONTINUOUS
 62
     7
100
AcDbLine
 10
97.6711009174
 20
67.1171346391
 30
0.0
 11
97.6711009174
 21
73.9954957287
 31
0.0
  0
SPLINE
  5
87
330
1F
100
AcDbEntity
  8
0
  6
CONTINUOUS
 62
     7
100
AcDbSpline
210
0.0
220
0.0
230
1.0
 70
     8
 71
     3
 72
    15
 73
    11
 74
     0
 42
0.00000001
 43
0.00000001
 40
0.0
 40
0.0
 40
0.0
 40
0.0
 40
0.0893751690298153
 40
0.1095645385658496
 40
0.2172345330292235
 40
0.3318620906179673
 40
0.5192586782608836
 40
0.7915752418268578
 40
0.997349751646607
 40
1.0
 40
1.0
 40
1.0
 40
1.0
 10
97.67110091743122
 20
99.12506809477804
 30
0.0
 10
97.66761522001951
 20
99.09358915253208
 30
0.0
 10
97.66334212232766
 20
99.05499928669842
 30
0.0
 10
97.62370954642743
 20
99.03210889242948
 30
0.0
 10
97.54902769521803
 20
99.05729112094572
 30
0.0
 10
97.359109522585
 20
99.21603251359468
 30
0.0
 10
97.03109112401023
 20
99.55634553354176
 30
0.0
 10
96.61377391876638
 20
100.0282491816095
 30
0.0
 10
96.30606896907875
 20
100.3834338213473
 30
0.0
 10
96.17279557025878
 20
100.5373248386864
 30
0.0
 10
96.17110091743122
 20
100.5392816571511
 30
0.0
  0
LINE
  5
88
330
1F
100
AcDbEntity
  8
0
  6
CONTINUOUS
 62
     7
100
AcDbLine
 10
107.6711009174
 20
171.4820513701
 30
0.0
 11
107.6711009174
 21
109.9186070534
 31
0.0
  0
SPLINE
  5
89
330
1F
100
AcDbEntity
  8
0
  6
CONTINUOUS
 62
     7
100
AcDbSpline
210
0.0
220
0.0
230
1.0
 70
     8
 71
     3
 72
    18
 73
    14
 74
     0
 42
0.00000001
 43
0.00000001
 40
0.0
 40
0.0
 40
0.0
 40
0.0
 40
0.0011798243471889
 40
0.0082242766061508
 40
0.029920734946376
 40
0.1038865694135077
 40
0.3084744618664851
 40
0.5194013578830856
 40
0.6742299380903538
 40
0.8325336504135337
 40
0.9280041169339732
 40
0.9688116509303951
 40
1.0
 40
1.0
 40
1.0
 40
1.0
 10
107.6711009174312
 20
109.9186070533897
 30
0.0
 10
107.6710991278763
 20
109.9147924098428
 30
0.0
 10
107.6710866533123
 20
109.8882014314837
 30
0.0
 10
107.6705113081013
 20
109.7913460780199
 30
0.0
 10
107.6627379727556
 20
109.4576342483836
 30
0.0
 10
107.5844939408709
 20
108.4706222735927
 30
0.0
 10
107.2166358164334
 20
106.8168925037812
 30
0.0
 10
106.4556399315933
 20
104.8590568795967
 30
0.0
 10
105.5133310341372
 20
103.0767336823674
 30
0.0
 10
104.5989610682351
 20
101.7295414539014
 30
0.0
 10
103.7289783709332
 20
100.8904011683518
 30
0.0
 10
103.0994348858484
 20
100.577377638698
 30
0.0
 10
102.8005686573065
 20
100.5507965053604
 30
0.0
 10
102.6711009174312
 20
100.5392816571511
 30
0.0
  0
LINE
  5
8A
330
1F
100
AcDbEntity
  8
0
  6
CONTINUOUS
 62
     7
100
AcDbLine
 10
102.6711009174
 20
100.5392816572
 30
0.0
 11
102.6711009174
 21
171.4820513701
 31
0.0
  0
LINE
  5
8B
330
1F
100
AcDbEntity
  8
0
  6
CONTINUOUS
 62
     7
100
AcDbLine
 10
102.6711009174
 20
171.4820513701
 30
0.0
 11
107.6711009174
 21
171.4820513701
 31
0.0
  0
LINE
  5
8C
330
1F
100
AcDbEntity
  8
0
  6
CONTINUOUS
 62
     7
100
AcDbLine
 10
82.6711009174
 20
171.4820513701
 30
0.0
 11
82.6711009174
 21
86.4820513701
 31
0.0
  0
LINE
  5
8D
330
1F
100
AcDbEntity
  8
0
  6
CONTINUOUS
 62
     7
100
AcDbLine
 10
82.6711009174
 20
86.4820513701
 30
0.0
 11
77.6711009174
 21
86.4820513701
 31
0.0
  0
LINE
  5
8E
330
1F
100
AcDbEntity
  8
0
  6
CONTINUOUS
 62
     7
100
AcDbLine
 10
77.6711009174
 20
86.4820513701
 30
0.0
 11
77.6711009174
 21
171.4820513701
 31
0.0
  0
LINE
  5
8F
330
1F
100
AcDbEntity
  8
0
  6
CONTINUOUS
 62
     7
100
AcDbLine
 10
77.6711009174
 20
171.4820513701
 30
0.0
 11
82.6711009174
 21
171.4820513701
 31
0.0
  0
LINE
  5
90
330
1F
100
AcDbEntity
  8
0
  6
CONTINUOUS
 62
     7
100
AcDbLine
 10
82.6711009174
 20
86.4820513701
 30
0.0
 11
82.6711009174
 21
73.9954957287
 31
0.0
  0
LWPOLYLINE
  5
91
330
1F
100
AcDbEntity
  8
0
  6
CONTINUOUS
 62
     7
100
AcDbPolyline
 90
        9
 70
   128
 43
0.0
 10
82.6711009174
 20
73.9954957287
 10
81.6956493074
 20
74.0254864369
 10
80.7576837556
 20
74.1143060353
 10
79.8932497523
 20
74.2585412366
 10
79.1355670115
 20
74.4526491629
 10
78.5137528559
 20
74.6891703555
 10
78.0517032549
 20
74.9590154375
 10
77.7671745154
 20
75.2518144138
 10
77.6711009174
 20
75.5563151839
  0
LINE
  5
92
330
1F
100
AcDbEntity
  8
0
  6
CONTINUOUS
 62
     7
100
AcDbLine
 10
77.6711009174
 20
75.5563151839
 30
0.0
 11
77.6711009174
 21
86.4820513701
 31
0.0
  0
LINE
  5
93
330
1F
100
AcDbEntity
  8
0
  6
CONTINUOUS
 62
     7
100
AcDbLine
 10
102.6711009174
 20
171.4820513701
 30
0.0
 11
82.6711009174
 21
171.4820513701
 31
0.0
  0
LINE
  5
94
330
1F
100
AcDbEntity
  8
0
  6
CONTINUOUS
 62
     7
100
AcDbLine
 10
96.1711009174
 20
100.5392816572
 30
0.0
 11
102.6711009174
 21
100.5392816572
 31
0.0
  0
LINE
  5
95
330
1F
100
AcDbEntity
  8
0
  6
CONTINUOUS
 62
     7
100
AcDbLine
 10
96.1711009174
 20
86.4820513701
 30
0.0
 11
96.1711009174
 21
100.5392816572
 31
0.0
  0
LINE
  5
96
330
1F
100
AcDbEntity
  8
0
  6
CONTINUOUS
 62
     7
100
AcDbLine
 10
96.1711009174
 20
86.4820513701
 30
0.0
 11
82.6711009174
 21
86.4820513701
 31
0.0
  0
LINE
  5
97
330
1F
100
AcDbEntity
  8
0
  6
CONTINUOUS
 62
     7
100
AcDbLine
 10
97.6711009174
 20
86.4820513701
 30
0.0
 11
96.1711009174
 21
86.4820513701
 31
0.0
  0
LINE
  5
98
330
1F
100
AcDbEntity
  8
0
  6
CONTINUOUS
 62
     7
100
AcDbLine
 10
97.6711009174
 20
99.1250680948
 30
0.0
 11
97.6711009174
 21
97.3333185772
 31
0.0
  0
LWPOLYLINE
  5
99
330
1F
100
AcDbEntity
  8
0
  6
CONTINUOUS
 62
     7
100
AcDbPolyline
 90
        9
 70
   128
 43
0.0
 10
97.6711009174
 20
74.4637415653
 10
97.642278838
 20
74.3723913342
 10
97.5569202162
 20
74.2845516414
 10
97.4183053359
 20
74.2035981168
 10
97.2317610892
 20
74.132641759
 10
97.004456267
 20
74.0744093811
 10
96.745126066
 20
74.0311388207
 10
96.4637364005
 20
74.0044929412
 10
96.1711009174
 20
73.9954957287
  0
LINE
  5
9A
330
1F
100
AcDbEntity
  8
0
  6
CONTINUOUS
 62
     7
100
AcDbLine
 10
96.1711009174
 20
73.9954957287
 30
0.0
 11
96.1711009174
 21
86.4820513701
 31
0.0
  0
LINE
  5
9B
330
1F
100
AcDbEntity
  8
0
  6
CONTINUOUS
 62
     7
100
AcDbLine
 10
96.1711009174
 20
73.9954957287
 30
0.0
 11
82.6711009174
 21
73.9954957287
 31
0.0
  0
LINE
  5
9C
330
1F
100
AcDbEntity
  8
0
  6
CONTINUOUS
 62
     7
100
AcDbLine
 10
77.6711009174
 20
72.1171346391
 30
0.0
 11
77.6711009174
 21
75.5563151839
 31
0.0
  0
LINE
  5
9D
330
1F
100
AcDbEntity
  8
0
  6
CONTINUOUS
 62
     7
100
AcDbLine
 10
107.6711009174
 20
109.9186070534
 30
0.0
 11
107.6711009174
 21
105.8469681011
 31
0.0
  0
LINE
  5
9E
330
1F
100
AcDbEntity
  8
0
  6
CONTINUOUS
 62
     7
100
AcDbLine
 10
457.6711009174
 20
86.4820513701
 30
0.0
 11
457.6711009174
 21
75.5563151839
 31
0.0
  0
LWPOLYLINE
  5
9F
330
1F
100
AcDbEntity
  8
0
  6
CONTINUOUS
 62
     7
100
AcDbPolyline
 90
        9
 70
   128
 43
0.0
 10
457.6711009174
 20
75.5563151839
 10
457.5750273194
 20
75.2518144138
 10
457.29049858
 20
74.9590154375
 10
456.8284489789
 20
74.6891703555
 10
456.2066348234
 20
74.4526491629
 10
455.4489520825
 20
74.2585412366
 10
454.5845180793
 20
74.1143060353
 10
453.6465525275
 20
74.0254864369
 10
452.6711009174
 20
73.9954957287
  0
LINE
  5
A0
330
1F
100
AcDbEntity
  8
0
  6
CONTINUOUS
 62
     7
100
AcDbLine
 10
452.6711009174
 20
73.9954957287
 30
0.0
 11
452.6711009174
 21
86.4820513701
 31
0.0
  0
LINE
  5
A1
330
1F
100
AcDbEntity
  8
0
  6
CONTINUOUS
 62
     7
100
AcDbLine
 10
457.6711009174
 20
86.4820513701
 30
0.0
 11
452.6711009174
 21
86.4820513701
 31
0.0
  0
LINE
  5
A2
330
1F
100
AcDbEntity
  8
0
  6
CONTINUOUS
 62
     7
100
AcDbLine
 10
439.1711009174
 20
86.4820513701
 30
0.0
 11
437.6711009174
 21
86.4820513701
 31
0.0
  0
LINE
  5
A3
330
1F
100
AcDbEntity
  8
0
  6
CONTINUOUS
 62
     7
100
AcDbLine
 10
437.6711009174
 20
97.3333185772
 30
0.0
 11
437.6711009174
 21
99.1250680948
 31
0.0
  0
SPLINE
  5
A4
330
1F
100
AcDbEntity
  8
0
  6
CONTINUOUS
 62
     7
100
AcDbSpline
210
0.0
220
0.0
230
1.0
 70
     8
 71
     3
 72
    15
 73
    11
 74
     0
 42
0.00000001
 43
0.00000001
 40
0.0
 40
0.0
 40
0.0
 40
0.0
 40
0.0026502483534017
 40
0.2084247581731441
 40
0.480741321739124
 40
0.6681379093820323
 40
0.78276546697078
 40
0.8904354614341496
 40
0.9106248309701861
 40
1.0
 40
1.0
 40
1.0
 40
1.0
 10
439.1711009174313
 20
100.5392816571511
 30
0.0
 10
439.1694062646038
 20
100.5373248386863
 30
0.0
 10
439.036132865791
 20
100.3834338213394
 30
0.0
 10
438.7284279160914
 20
100.0282491816144
 30
0.0
 10
438.3111107108529
 20
99.55634553354079
 30
0.0
 10
437.9830923122774
 20
99.21603251359478
 30
0.0
 10
437.7931741396445
 20
99.0572911209457
 30
0.0
 10
437.7184922884351
 20
99.03210889242948
 30
0.0
 10
437.6788597125347
 20
99.05499928669842
 30
0.0
 10
437.6745866148428
 20
99.09358915253208
 30
0.0
 10
437.6711009174312
 20
99.12506809477804
 30
0.0
  0
LINE
  5
A5
330
1F
100
AcDbEntity
  8
0
  6
CONTINUOUS
 62
     7
100
AcDbLine
 10
439.1711009174
 20
100.5392816572
 30
0.0
 11
439.1711009174
 21
86.4820513701
 31
0.0
  0
LINE
  5
A6
330
1F
100
AcDbEntity
  8
0
  6
CONTINUOUS
 62
     7
100
AcDbLine
 10
439.1711009174
 20
86.4820513701
 30
0.0
 11
439.1711009174
 21
73.9954957287
 31
0.0
  0
LWPOLYLINE
  5
A7
330
1F
100
AcDbEntity
  8
0
  6
CONTINUOUS
 62
     7
100
AcDbPolyline
 90
        9
 70
   128
 43
0.0
 10
439.1711009174
 20
73.9954957287
 10
438.8784654344
 20
74.0044929412
 10
438.5970757689
 20
74.0311388207
 10
438.3377455679
 20
74.0744093811
 10
438.1104407457
 20
74.132641759
 10
437.923896499
 20
74.2035981168
 10
437.7852816187
 20
74.2845516414
 10
437.6999229968
 20
74.3723913342
 10
437.6711009174
 20
74.4637415653
  0
LINE
  5
A8
330
1F
100
AcDbEntity
  8
0
  6
CONTINUOUS
 62
     7
100
AcDbLine
 10
432.6711009174
 20
171.4820513701
 30
0.0
 11
432.6711009174
 21
100.5392816572
 31
0.0
  0
SPLINE
  5
A9
330
1F
100
AcDbEntity
  8
0
  6
CONTINUOUS
 62
     7
100
AcDbSpline
210
0.0
220
0.0
230
1.0
 70
     8
 71
     3
 72
    18
 73
    14
 74
     0
 42
0.00000001
 43
0.00000001
 40
0.0
 40
0.0
 40
0.0
 40
0.0
 40
0.0311882312639464
 40
0.0719956111208022
 40
0.1674657170270467
 40
0.321709167587834
 40
0.4806031154199996
 40
0.6853613864582307
 40
0.8961138229902769
 40
0.9700793780712136
 40
0.9917757544588593
 40
0.9988201801092834
 40
1.0
 40
1.0
 40
1.0
 40
1.0
 10
432.6711009174312
 20
100.5392816571511
 30
0.0
 10
432.5416328672175
 20
100.550796364063
 30
0.0
 10
432.2427659222832
 20
100.5773771712265
 30
0.0
 10
431.6132323108733
 20
100.8904051963726
 30
0.0
 10
430.755122404253
 20
101.7179280703948
 30
0.0
 10
429.8368396122182
 20
103.0625637049421
 30
0.0
 10
428.9031262033399
 20
104.8242958656816
 30
0.0
 10
428.1324192526527
 20
106.7953655694518
 30
0.0
 10
427.7593209451442
 20
108.4503804021764
 30
0.0
 10
427.6794636089456
 20
109.4576332400199
 30
0.0
 10
427.6716905367279
 20
109.7913461177194
 30
0.0
 10
427.6711151813903
 20
109.8882014308463
 30
0.0
 10
427.6711027069661
 20
109.9147924097629
 30
0.0
 10
427.6711009174312
 20
109.9186070533897
 30
0.0
  0
LINE
  5
AA
330
1F
100
AcDbEntity
  8
0
  6
CONTINUOUS
 62
     7
100
AcDbLine
 10
427.6711009174
 20
109.9186070534
 30
0.0
 11
427.6711009174
 21
171.4820513701
 31
0.0
  0
LINE
  5
AB
330
1F
100
AcDbEntity
  8
0
  6
CONTINUOUS
 62
     7
100
AcDbLine
 10
427.6711009174
 20
171.4820513701
 30
0.0
 11
432.6711009174
 21
171.4820513701
 31
0.0
  0
LINE
  5
AC
330
1F
100
AcDbEntity
  8
0
  6
CONTINUOUS
 62
     7
100
AcDbLine
 10
452.6711009174
 20
73.9954957287
 30
0.0
 11
439.1711009174
 21
73.9954957287
 31
0.0
  0
LINE
  5
AD
330
1F
100
AcDbEntity
  8
0
  6
CONTINUOUS
 62
     7
100
AcDbLine
 10
452.6711009174
 20
86.4820513701
 30
0.0
 11
439.1711009174
 21
86.4820513701
 31
0.0
  0
LINE
  5
AE
330
1F
100
AcDbEntity
  8
0
  6
CONTINUOUS
 62
     7
100
AcDbLine
 10
457.6711009174
 20
171.4820513701
 30
0.0
 11
457.6711009174
 21
86.4820513701
 31
0.0
  0
LINE
  5
AF
330
1F
100
AcDbEntity
  8
0
  6
CONTINUOUS
 62
     7
100
AcDbLine
 10
452.6711009174
 20
86.4820513701
 30
0.0
 11
452.6711009174
 21
171.4820513701
 31
0.0
  0
LINE
  5
B0
330
1F
100
AcDbEntity
  8
0
  6
CONTINUOUS
 62
     7
100
AcDbLine
 10
452.6711009174
 20
171.4820513701
 30
0.0
 11
457.6711009174
 21
171.4820513701
 31
0.0
  0
LINE
  5
B1
330
1F
100
AcDbEntity
  8
0
  6
CONTINUOUS
 62
     7
100
AcDbLine
 10
432.6711009174
 20
100.5392816572
 30
0.0
 11
439.1711009174
 21
100.5392816572
 31
0.0
  0
LINE
  5
B2
330
1F
100
AcDbEntity
  8
0
  6
CONTINUOUS
 62
     7
100
AcDbLine
 10
452.6711009174
 20
171.4820513701
 30
0.0
 11
432.6711009174
 21
171.4820513701
 31
0.0
  0
LINE
  5
B3
330
1F
100
AcDbEntity
  8
0
  6
CONTINUOUS
 62
     7
100
AcDbLine
 10
457.6711009174
 20
75.5563151839
 30
0.0
 11
457.6711009174
 21
72.1171346391
 31
0.0
  0
LINE
  5
B4
330
1F
100
AcDbEntity
  8
0
  6
CONTINUOUS
 62
     7
100
AcDbLine
 10
427.6711009174
 20
105.8469681011
 30
0.0
 11
427.6711009174
 21
109.9186070534
 31
0.0
  0
SPLINE
  5
B5
330
1F
100
AcDbEntity
  8
0
  6
CONTINUOUS
 62
     8
100
AcDbSpline
210
0.0
220
0.0
230
1.0
 70
     8
 71
     3
 72
    13
 73
     9
 74
     0
 42
0.00000001
 43
0.00000001
 40
0.0
 40
0.0
 40
0.0
 40
0.0
 40
0.0035554540980698
 40
0.2436877384355879
 40
0.561557216321699
 40
0.7783354272652169
 40
0.9080597752504114
 40
1.0
 40
1.0
 40
1.0
 40
1.0
 10
96.17110091743122
 20
100.5392816571511
 30
0.0
 10
96.1736938465603
 20
100.5377846232331
 30
0.0
 10
96.35141095890363
 20
100.4351792176239
 30
0.0
 10
96.76086090321436
 20
100.1989943983381
 30
0.0
 10
97.317011254518
 20
99.88387844789396
 30
0.0
 10
97.7487155235611
 20
99.66154802931213
 30
0.0
 10
97.99665389899107
 20
99.55313549483294
 30
0.0
 10
98.07048557541195
 20
99.5475929816886
 30
0.0
 10
98.10110887637538
 20
99.54529410326215
 30
0.0
  0
LINE
  5
B6
330
1F
100
AcDbEntity
  8
0
  6
CONTINUOUS
 62
     8
100
AcDbLine
 10
102.6711009174
 20
99.5392832888
 30
0.0
 11
102.6711009174
 21
100.5392816572
 31
0.0
  0
LINE
  5
B7
330
1F
100
AcDbEntity
  8
0
  6
CONTINUOUS
 62
     8
100
AcDbLine
 10
96.1711009174
 20
67.1171346391
 30
0.0
 11
96.1711009174
 21
73.9954957287
 31
0.0
  0
LINE
  5
B8
330
1F
100
AcDbEntity
  8
0
  6
CONTINUOUS
 62
     8
100
AcDbLine
 10
82.6711009174
 20
73.9954957287
 30
0.0
 11
82.6711009174
 21
67.1171346391
 31
0.0
  0
LINE
  5
B9
330
1F
100
AcDbEntity
  8
0
  6
CONTINUOUS
 62
     8
100
AcDbLine
 10
432.6711009174
 20
100.5392816572
 30
0.0
 11
432.6711009174
 21
99.5392828597
 31
0.0
  0
SPLINE
  5
BA
330
1F
100
AcDbEntity
  8
0
  6
CONTINUOUS
 62
     8
100
AcDbSpline
210
0.0
220
0.0
230
1.0
 70
     8
 71
     3
 72
    13
 73
     9
 74
     0
 42
0.00000001
 43
0.00000001
 40
0.0
 40
0.0
 40
0.0
 40
0.0
 40
0.0909124056229197
 40
0.2207835866357324
 40
0.4378071655577914
 40
0.7560364350986469
 40
0.9964405215371962
 40
1.0
 40
1.0
 40
1.0
 40
1.0
 10
437.2423316903363
 20
99.54548314120788
 30
0.0
 10
437.272598589169
 20
99.54777304619763
 30
0.0
 10
437.3461026883602
 20
99.55333415123307
 30
0.0
 10
437.5935315034814
 20
99.66159124671167
 30
0.0
 10
438.025168194315
 20
99.88385704007419
 30
0.0
 10
438.5813464256291
 20
100.1989996522547
 30
0.0
 10
438.9907908641169
 20
100.4351792062865
 30
0.0
 10
439.1685079881319
 20
100.53778462307
 30
0.0
 10
439.1711009174313
 20
100.5392816571511
 30
0.0
  0
LINE
  5
BB
330
1F
100
AcDbEntity
  8
0
  6
CONTINUOUS
 62
     8
100
AcDbLine
 10
452.6711009174
 20
67.1171346391
 30
0.0
 11
452.6711009174
 21
73.9954957287
 31
0.0
  0
LINE
  5
BC
330
1F
100
AcDbEntity
  8
0
  6
CONTINUOUS
 62
     8
100
AcDbLine
 10
439.1711009174
 20
73.9954957287
 30
0.0
 11
439.1711009174
 21
67.1171346391
 31
0.0
  0
LINE
  5
BD
330
1F
100
AcDbEntity
  8
0
  6
CONTINUOUS
 62
     7
100
AcDbLine
 10
437.6711009174
 20
-6.7973148038
 30
0.0
 11
97.6711009174
 21
-6.7973148038
 31
0.0
  0
LINE
  5
BE
330
1F
100
AcDbEntity
  8
0
  6
CONTINUOUS
 62
     7
100
AcDbLine
 10
97.6711009174
 20
-44.5169784274
 30
0.0
 11
437.6711009174
 21
-44.5169784274
 31
0.0
  0
LINE
  5
BF
330
1F
100
AcDbEntity
  8
0
  6
CONTINUOUS
 62
     7
100
AcDbLine
 10
437.6711009174
 20
-20.34318957
 30
0.0
 11
97.6711009174
 21
-20.34318957
 31
0.0
  0
LINE
  5
C0
330
1F
100
AcDbEntity
  8
0
  6
CONTINUOUS
 62
     7
100
AcDbLine
 10
97.6711009174
 20
-8.7961841862
 30
0.0
 11
437.6711009174
 21
-8.7961841862
 31
0.0
  0
LINE
  5
C1
330
1F
100
AcDbEntity
  8
0
  6
CONTINUOUS
 62
     7
100
AcDbLine
 10
437.6711009174
 20
-8.7961841862
 30
0.0
 11
437.6711009174
 21
-20.34318957
 31
0.0
  0
LINE
  5
C2
330
1F
100
AcDbEntity
  8
0
  6
CONTINUOUS
 62
     7
100
AcDbLine
 10
97.6711009174
 20
-20.34318957
 30
0.0
 11
97.6711009174
 21
-8.7961841862
 31
0.0
  0
LINE
  5
C3
330
1F
100
AcDbEntity
  8
0
  6
CONTINUOUS
 62
     7
100
AcDbLine
 10
97.6711009174
 20
-41.9705383524
 30
0.0
 11
437.6711009174
 21
-41.9705383524
 31
0.0
  0
LINE
  5
C4
330
1F
100
AcDbEntity
  8
0
  6
CONTINUOUS
 62
     7
100
AcDbLine
 10
437.6711009174
 20
-20.34318957
 30
0.0
 11
437.6711009174
 21
-41.9705383524
 31
0.0
  0
LINE
  5
C5
330
1F
100
AcDbEntity
  8
0
  6
CONTINUOUS
 62
     7
100
AcDbLine
 10
97.6711009174
 20
-20.34318957
 30
0.0
 11
97.6711009174
 21
-41.9705383524
 31
0.0
  0
LINE
  5
C6
330
1F
100
AcDbEntity
  8
0
  6
CONTINUOUS
 62
     7
100
AcDbLine
 10
437.6711009174
 20
-6.7973148038
 30
0.0
 11
437.6711009174
 21
-8.7961841862
 31
0.0
  0
LINE
  5
C7
330
1F
100
AcDbEntity
  8
0
  6
CONTINUOUS
 62
     7
100
AcDbLine
 10
97.6711009174
 20
-6.7973148038
 30
0.0
 11
97.6711009174
 21
-8.7961841862
 31
0.0
  0
LINE
  5
C8
330
1F
100
AcDbEntity
  8
0
  6
CONTINUOUS
 62
     7
100
AcDbLine
 10
437.6711009174
 20
-41.9705383524
 30
0.0
 11
437.6711009174
 21
-44.5169784274
 31
0.0
  0
LINE
  5
C9
330
1F
100
AcDbEntity
  8
0
  6
CONTINUOUS
 62
     7
100
AcDbLine
 10
97.6711009174
 20
-44.5169784274
 30
0.0
 11
97.6711009174
 21
-41.9705383524
 31
0.0
  0
LINE
  5
CA
330
1F
100
AcDbEntity
  8
0
  6
CONTINUOUS
 62
     7
100
AcDbLine
 10
82.6711009174
 20
-8.7961841862
 30
0.0
 11
82.6711009174
 21
-20.34318957
 31
0.0
  0
LWPOLYLINE
  5
CB
330
1F
100
AcDbEntity
  8
0
  6
CONTINUOUS
 62
     7
100
AcDbPolyline
 90
        9
 70
   128
 43
0.0
 10
82.6711009174
 20
-20.34318957
 10
81.6956493074
 20
-20.3235259684
 10
80.7576837556
 20
-20.2652908245
 10
79.8932497523
 20
-20.1707220825
 10
79.1355670115
 20
-20.0434539659
 10
78.5137528559
 20
-19.8883773172
 10
78.0517032549
 20
-19.7114516449
 10
77.7671745154
 20
-19.5194761035
 10
77.6711009174
 20
-19.3198282053
  0
LINE
  5
CC
330
1F
100
AcDbEntity
  8
0
  6
CONTINUOUS
 62
     7
100
AcDbLine
 10
77.6711009174
 20
-19.3198282053
 30
0.0
 11
77.6711009174
 21
-13.5463255134
 31
0.0
  0
ARC
  5
CD
330
1F
100
AcDbEntity
  8
0
  6
CONTINUOUS
 62
     7
100
AcDbCircle
 10
82.5492930488
 20
-13.6745405077
 30
0.0
 40
4.879876797192091
100
AcDbArc
 50
88.5696766516
 51
178.4944243822
  0
LINE
  5
CE
330
1F
100
AcDbEntity
  8
0
  6
CONTINUOUS
 62
     7
100
AcDbLine
 10
96.1711009174
 20
-8.7961841862
 30
0.0
 11
82.6711009174
 21
-8.7961841862
 31
0.0
  0
LINE
  5
CF
330
1F
100
AcDbEntity
  8
0
  6
CONTINUOUS
 62
     7
100
AcDbLine
 10
96.1711009174
 20
-20.34318957
 30
0.0
 11
96.1711009174
 21
-8.7961841862
 31
0.0
  0
LINE
  5
D0
330
1F
100
AcDbEntity
  8
0
  6
CONTINUOUS
 62
     7
100
AcDbLine
 10
96.1711009174
 20
-20.34318957
 30
0.0
 11
82.6711009174
 21
-20.34318957
 31
0.0
  0
ARC
  5
D1
330
1F
100
AcDbEntity
  8
0
  6
CONTINUOUS
 62
     7
100
AcDbCircle
 10
96.5303918902
 20
-18.2807358939
 30
0.0
 40
2.093515027231327
100
AcDbArc
 50
260.1179239082
 51
303.0162860521
  0
ARC
  5
D2
330
1F
100
AcDbEntity
  8
0
  6
CONTINUOUS
 62
     7
100
AcDbCircle
 10
96.207643278
 20
-10.2596910827
 30
0.0
 40
1.463963039157635
100
AcDbArc
 50
1.5055756178
 51
91.4303233484
  0
ARC
  5
D3
330
1F
100
AcDbEntity
  8
0
  6
CONTINUOUS
 62
     7
100
AcDbCircle
 10
96.3377675841
 20
-40.6288975659
 30
0.0
 40
1.351953319378229
100
AcDbArc
 50
262.918652546
 51
350.479797855
  0
LINE
  5
D4
330
1F
100
AcDbEntity
  8
0
  6
CONTINUOUS
 62
     7
100
AcDbLine
 10
96.1711009174
 20
-41.9705383524
 30
0.0
 11
96.1711009174
 21
-20.34318957
 31
0.0
  0
LINE
  5
D5
330
1F
100
AcDbEntity
  8
0
  6
CONTINUOUS
 62
     7
100
AcDbLine
 10
82.6711009174
 20
-20.34318957
 30
0.0
 11
82.6711009174
 21
-41.9705383524
 31
0.0
  0
LWPOLYLINE
  5
D6
330
1F
100
AcDbEntity
  8
0
  6
CONTINUOUS
 62
     7
100
AcDbPolyline
 90
        9
 70
   128
 43
0.0
 10
82.6711009174
 20
-41.9705383524
 10
81.6956493074
 20
-41.8989293205
 10
80.7576837556
 20
-41.6868541195
 10
79.8932497523
 20
-41.3424626805
 10
79.1355670115
 20
-40.8789897734
 10
78.5137528559
 20
-40.3142464021
 10
78.0517032549
 20
-39.6699353377
 10
77.7671745154
 20
-38.9708170929
 10
77.6711009174
 20
-38.2437583899
  0
LINE
  5
D7
330
1F
100
AcDbEntity
  8
0
  6
CONTINUOUS
 62
     7
100
AcDbLine
 10
77.6711009174
 20
-38.2437583899
 30
0.0
 11
77.6711009174
 21
-19.3198282053
 31
0.0
  0
LINE
  5
D8
330
1F
100
AcDbEntity
  8
0
  6
CONTINUOUS
 62
     7
100
AcDbLine
 10
96.1711009174
 20
-41.9705383524
 30
0.0
 11
82.6711009174
 21
-41.9705383524
 31
0.0
  0
LINE
  5
D9
330
1F
100
AcDbEntity
  8
0
  6
CONTINUOUS
 62
     7
100
AcDbLine
 10
82.6711009174
 20
-6.7973148038
 30
0.0
 11
82.6711009174
 21
-8.7961841862
 31
0.0
  0
LINE
  5
DA
330
1F
100
AcDbEntity
  8
0
  6
CONTINUOUS
 62
     7
100
AcDbLine
 10
96.1711009174
 20
-6.7973148038
 30
0.0
 11
82.6711009174
 21
-6.7973148038
 31
0.0
  0
LINE
  5
DB
330
1F
100
AcDbEntity
  8
0
  6
CONTINUOUS
 62
     7
100
AcDbLine
 10
96.1711009174
 20
-8.7961841862
 30
0.0
 11
96.1711009174
 21
-6.7973148038
 31
0.0
  0
ARC
  5
DC
330
1F
100
AcDbEntity
  8
0
  6
CONTINUOUS
 62
     7
100
AcDbCircle
 10
82.6711009174
 20
-11.7973148038
 30
0.0
 40
5.0
100
AcDbArc
 50
90.0
 51
180.0
  0
LINE
  5
DD
330
1F
100
AcDbEntity
  8
0
  6
CONTINUOUS
 62
     7
100
AcDbLine
 10
77.6711009174
 20
-13.5463255134
 30
0.0
 11
77.6711009174
 21
-11.7973148038
 31
0.0
  0
ARC
  5
DE
330
1F
100
AcDbEntity
  8
0
  6
CONTINUOUS
 62
     7
100
AcDbCircle
 10
96.1711009174
 20
-8.2973148038
 30
0.0
 40
1.5
100
AcDbArc
 50
0.0
 51
90.0
  0
LINE
  5
DF
330
1F
100
AcDbEntity
  8
0
  6
CONTINUOUS
 62
     7
100
AcDbLine
 10
82.6711009174
 20
-41.9705383524
 30
0.0
 11
82.6711009174
 21
-44.5169784274
 31
0.0
  0
LINE
  5
E0
330
1F
100
AcDbEntity
  8
0
  6
CONTINUOUS
 62
     7
100
AcDbLine
 10
96.1711009174
 20
-44.5169784274
 30
0.0
 11
96.1711009174
 21
-41.9705383524
 31
0.0
  0
LINE
  5
E1
330
1F
100
AcDbEntity
  8
0
  6
CONTINUOUS
 62
     7
100
AcDbLine
 10
96.1711009174
 20
-44.5169784274
 30
0.0
 11
82.6711009174
 21
-44.5169784274
 31
0.0
  0
ARC
  5
E2
330
1F
100
AcDbEntity
  8
0
  6
CONTINUOUS
 62
     7
100
AcDbCircle
 10
82.6711009174
 20
-39.5169784274
 30
0.0
 40
5.0
100
AcDbArc
 50
180.0
 51
270.0
  0
LINE
  5
E3
330
1F
100
AcDbEntity
  8
0
  6
CONTINUOUS
 62
     7
100
AcDbLine
 10
77.6711009174
 20
-39.5169784274
 30
0.0
 11
77.6711009174
 21
-38.2437583899
 31
0.0
  0
ARC
  5
E4
330
1F
100
AcDbEntity
  8
0
  6
CONTINUOUS
 62
     7
100
AcDbCircle
 10
96.1711009174
 20
-43.0169784274
 30
0.0
 40
1.5
100
AcDbArc
 50
270.0
 51
0.0
  0
LINE
  5
E5
330
1F
100
AcDbEntity
  8
0
  6
CONTINUOUS
 62
     7
100
AcDbLine
 10
102.6711009174
 20
-44.5169784274
 30
0.0
 11
96.1711009174
 21
-44.5169784274
 31
0.0
  0
LINE
  5
E6
330
1F
100
AcDbEntity
  8
0
  6
CONTINUOUS
 62
     7
100
AcDbLine
 10
96.1711009174
 20
-6.7973148038
 30
0.0
 11
102.6711009174
 21
-6.7973148038
 31
0.0
  0
LINE
  5
E7
330
1F
100
AcDbEntity
  8
0
  6
CONTINUOUS
 62
     7
100
AcDbLine
 10
439.1711009174
 20
-8.7961841862
 30
0.0
 11
439.1711009174
 21
-20.34318957
 31
0.0
  0
ARC
  5
E8
330
1F
100
AcDbEntity
  8
0
  6
CONTINUOUS
 62
     7
100
AcDbCircle
 10
438.8118099447
 20
-18.2807358939
 30
0.0
 40
2.093515027231271
100
AcDbArc
 50
236.9837139479
 51
279.8820760918
  0
ARC
  5
E9
330
1F
100
AcDbEntity
  8
0
  6
CONTINUOUS
 62
     7
100
AcDbCircle
 10
439.1345585569
 20
-10.2596910827
 30
0.0
 40
1.463963039157612
100
AcDbArc
 50
88.5696766516
 51
178.4944243822
  0
LINE
  5
EA
330
1F
100
AcDbEntity
  8
0
  6
CONTINUOUS
 62
     7
100
AcDbLine
 10
457.6711009174
 20
-13.5463255134
 30
0.0
 11
457.6711009174
 21
-19.3198282053
 31
0.0
  0
LWPOLYLINE
  5
EB
330
1F
100
AcDbEntity
  8
0
  6
CONTINUOUS
 62
     7
100
AcDbPolyline
 90
        9
 70
   128
 43
0.0
 10
457.6711009174
 20
-19.3198282053
 10
457.5750273194
 20
-19.5194761035
 10
457.29049858
 20
-19.7114516449
 10
456.8284489789
 20
-19.8883773172
 10
456.2066348234
 20
-20.0434539659
 10
455.4489520825
 20
-20.1707220825
 10
454.5845180793
 20
-20.2652908245
 10
453.6465525275
 20
-20.3235259684
 10
452.6711009174
 20
-20.34318957
  0
LINE
  5
EC
330
1F
100
AcDbEntity
  8
0
  6
CONTINUOUS
 62
     7
100
AcDbLine
 10
452.6711009174
 20
-20.34318957
 30
0.0
 11
452.6711009174
 21
-8.7961841862
 31
0.0
  0
ARC
  5
ED
330
1F
100
AcDbEntity
  8
0
  6
CONTINUOUS
 62
     7
100
AcDbCircle
 10
452.792908786
 20
-13.6745405077
 30
0.0
 40
4.879876797192133
100
AcDbArc
 50
1.5055756178
 51
91.4303233484
  0
LINE
  5
EE
330
1F
100
AcDbEntity
  8
0
  6
CONTINUOUS
 62
     7
100
AcDbLine
 10
452.6711009174
 20
-20.34318957
 30
0.0
 11
439.1711009174
 21
-20.34318957
 31
0.0
  0
LINE
  5
EF
330
1F
100
AcDbEntity
  8
0
  6
CONTINUOUS
 62
     7
100
AcDbLine
 10
452.6711009174
 20
-8.7961841862
 30
0.0
 11
439.1711009174
 21
-8.7961841862
 31
0.0
  0
LINE
  5
F0
330
1F
100
AcDbEntity
  8
0
  6
CONTINUOUS
 62
     7
100
AcDbLine
 10
457.6711009174
 20
-19.3198282053
 30
0.0
 11
457.6711009174
 21
-38.2437583899
 31
0.0
  0
LWPOLYLINE
  5
F1
330
1F
100
AcDbEntity
  8
0
  6
CONTINUOUS
 62
     7
100
AcDbPolyline
 90
        9
 70
   128
 43
0.0
 10
457.6711009174
 20
-38.2437583899
 10
457.5750273194
 20
-38.9708170929
 10
457.29049858
 20
-39.6699353377
 10
456.8284489789
 20
-40.3142464021
 10
456.2066348234
 20
-40.8789897734
 10
455.4489520825
 20
-41.3424626805
 10
454.5845180793
 20
-41.6868541195
 10
453.6465525275
 20
-41.8989293205
 10
452.6711009174
 20
-41.9705383524
  0
LINE
  5
F2
330
1F
100
AcDbEntity
  8
0
  6
CONTINUOUS
 62
     7
100
AcDbLine
 10
452.6711009174
 20
-41.9705383524
 30
0.0
 11
452.6711009174
 21
-20.34318957
 31
0.0
  0
LINE
  5
F3
330
1F
100
AcDbEntity
  8
0
  6
CONTINUOUS
 62
     7
100
AcDbLine
 10
439.1711009174
 20
-20.34318957
 30
0.0
 11
439.1711009174
 21
-41.9705383524
 31
0.0
  0
ARC
  5
F4
330
1F
100
AcDbEntity
  8
0
  6
CONTINUOUS
 62
     7
100
AcDbCircle
 10
439.0044342508
 20
-40.6288975659
 30
0.0
 40
1.351953319378252
100
AcDbArc
 50
189.520202145
 51
277.081347454
  0
LINE
  5
F5
330
1F
100
AcDbEntity
  8
0
  6
CONTINUOUS
 62
     7
100
AcDbLine
 10
452.6711009174
 20
-41.9705383524
 30
0.0
 11
439.1711009174
 21
-41.9705383524
 31
0.0
  0
LINE
  5
F6
330
1F
100
AcDbEntity
  8
0
  6
CONTINUOUS
 62
     7
100
AcDbLine
 10
452.6711009174
 20
-8.7961841862
 30
0.0
 11
452.6711009174
 21
-6.7973148038
 31
0.0
  0
ARC
  5
F7
330
1F
100
AcDbEntity
  8
0
  6
CONTINUOUS
 62
     7
100
AcDbCircle
 10
452.6711009174
 20
-11.7973148038
 30
0.0
 40
4.999999999999998
100
AcDbArc
 50
0.0
 51
90.0
  0
LINE
  5
F8
330
1F
100
AcDbEntity
  8
0
  6
CONTINUOUS
 62
     7
100
AcDbLine
 10
457.6711009174
 20
-11.7973148038
 30
0.0
 11
457.6711009174
 21
-13.5463255134
 31
0.0
  0
LINE
  5
F9
330
1F
100
AcDbEntity
  8
0
  6
CONTINUOUS
 62
     7
100
AcDbLine
 10
439.1711009174
 20
-6.7973148038
 30
0.0
 11
439.1711009174
 21
-8.7961841862
 31
0.0
  0
ARC
  5
FA
330
1F
100
AcDbEntity
  8
0
  6
CONTINUOUS
 62
     7
100
AcDbCircle
 10
439.1711009174
 20
-8.2973148038
 30
0.0
 40
1.5
100
AcDbArc
 50
90.0
 51
180.0
  0
LINE
  5
FB
330
1F
100
AcDbEntity
  8
0
  6
CONTINUOUS
 62
     7
100
AcDbLine
 10
452.6711009174
 20
-6.7973148038
 30
0.0
 11
439.1711009174
 21
-6.7973148038
 31
0.0
  0
ARC
  5
FC
330
1F
100
AcDbEntity
  8
0
  6
CONTINUOUS
 62
     7
100
AcDbCircle
 10
452.6711009174
 20
-39.5169784274
 30
0.0
 40
5.0
100
AcDbArc
 50
270.0
 51
0.0
  0
LINE
  5
FD
330
1F
100
AcDbEntity
  8
0
  6
CONTINUOUS
 62
     7
100
AcDbLine
 10
452.6711009174
 20
-44.5169784274
 30
0.0
 11
452.6711009174
 21
-41.9705383524
 31
0.0
  0
LINE
  5
FE
330
1F
100
AcDbEntity
  8
0
  6
CONTINUOUS
 62
     7
100
AcDbLine
 10
457.6711009174
 20
-38.2437583899
 30
0.0
 11
457.6711009174
 21
-39.5169784274
 31
0.0
  0
LINE
  5
FF
330
1F
100
AcDbEntity
  8
0
  6
CONTINUOUS
 62
     7
100
AcDbLine
 10
439.1711009174
 20
-41.9705383524
 30
0.0
 11
439.1711009174
 21
-44.5169784274
 31
0.0
  0
ARC
  5
100
330
1F
100
AcDbEntity
  8
0
  6
CONTINUOUS
 62
     7
100
AcDbCircle
 10
439.1711009174
 20
-43.0169784274
 30
0.0
 40
1.5
100
AcDbArc
 50
180.0
 51
270.0
  0
LINE
  5
101
330
1F
100
AcDbEntity
  8
0
  6
CONTINUOUS
 62
     7
100
AcDbLine
 10
452.6711009174
 20
-44.5169784274
 30
0.0
 11
439.1711009174
 21
-44.5169784274
 31
0.0
  0
LINE
  5
102
330
1F
100
AcDbEntity
  8
0
  6
CONTINUOUS
 62
     7
100
AcDbLine
 10
439.1711009174
 20
-44.5169784274
 30
0.0
 11
432.6711009174
 21
-44.5169784274
 31
0.0
  0
LINE
  5
103
330
1F
100
AcDbEntity
  8
0
  6
CONTINUOUS
 62
     7
100
AcDbLine
 10
432.6711009174
 20
-6.7973148038
 30
0.0
 11
439.1711009174
 21
-6.7973148038
 31
0.0
  0
SPLINE
  5
104
330
1F
100
AcDbEntity
  8
0
  6
CONTINUOUS
 62
     8
100
AcDbSpline
210
0.0
220
0.0
230
1.0
 70
     8
 71
     3
 72
    11
 73
     7
 74
     0
 42
0.00000001
 43
0.00000001
 40
0.0
 40
0.0
 40
0.0
 40
0.0
 40
0.2141037983633662
 40
0.6589603651140014
 40
0.99502416176028
 40
1.0
 40
1.0
 40
1.0
 40
1.0
 10
97.67110091743125
 20
-44.04672738308513
 30
0.0
 10
97.57460701279713
 20
-44.11818095531711
 30
0.0
 10
97.27762181629429
 20
-44.33809798811431
 30
0.0
 10
96.75911038753875
 20
-44.47569201531631
 30
0.0
 10
96.35141473366026
 20
-44.51683204121816
 30
0.0
 10
96.17369390084274
 20
-44.51697632235179
 30
0.0
 10
96.17110091743125
 20
-44.51697842744314
 30
0.0
  0
SPLINE
  5
105
330
1F
100
AcDbEntity
  8
0
  6
CONTINUOUS
 62
     8
100
AcDbSpline
210
0.0
220
0.0
230
1.0
 70
     8
 71
     3
 72
    11
 73
     7
 74
     0
 42
0.00000001
 43
0.00000001
 40
0.0
 40
0.0
 40
0.0
 40
0.0
 40
0.0058293982003523
 40
0.3995418938625936
 40
0.9207095734965862
 40
1.0
 40
1.0
 40
1.0
 40
1.0
 10
96.17110091743125
 20
-6.797314803822722
 30
0.0
 10
96.17369394673946
 20
-6.797316781521776
 30
0.0
 10
96.35141792527796
 20
-6.797452331298789
 30
0.0
 10
96.75763030000117
 20
-6.842709392701503
 30
0.0
 10
97.2057181211739
 20
-6.943739885773064
 30
0.0
 10
97.43897571538324
 20
-7.108507745017159
 30
0.0
 10
97.46977735489976
 20
-7.13026532260664
 30
0.0
  0
SPLINE
  5
106
330
1F
100
AcDbEntity
  8
0
  6
CONTINUOUS
 62
     8
100
AcDbSpline
210
0.0
220
0.0
230
1.0
 70
     8
 71
     3
 72
    11
 73
     7
 74
     0
 42
0.00000001
 43
0.00000001
 40
0.0
 40
0.0
 40
0.0
 40
0.0
 40
0.0049758382397333
 40
0.3410396348860312
 40
0.7858962016366599
 40
0.9999999999999999
 40
0.9999999999999999
 40
0.9999999999999999
 40
0.9999999999999999
 10
439.1711009174313
 20
-44.51697842744314
 30
0.0
 10
439.1685079340197
 20
-44.51697632235179
 30
0.0
 10
438.990787101201
 20
-44.51683204121812
 30
0.0
 10
438.5830914473246
 20
-44.47569201531635
 30
0.0
 10
438.0645800185681
 20
-44.33809798811431
 30
0.0
 10
437.7675948220653
 20
-44.11818095531712
 30
0.0
 10
437.6711009174313
 20
-44.04672738308516
 30
0.0
  0
SPLINE
  5
107
330
1F
100
AcDbEntity
  8
0
  6
CONTINUOUS
 62
     8
100
AcDbSpline
210
0.0
220
0.0
230
1.0
 70
     8
 71
     3
 72
    11
 73
     7
 74
     0
 42
0.00000001
 43
0.00000001
 40
0.0
 40
0.0
 40
0.0
 40
0.0
 40
0.2141037983633403
 40
0.658960365113972
 40
0.9950241617602607
 40
1.0
 40
1.0
 40
1.0
 40
1.0
 10
437.6711009174313
 20
-7.267565848180696
 30
0.0
 10
437.7675948220654
 20
-7.196112275948726
 30
0.0
 10
438.0645800185683
 20
-6.976195243151538
 30
0.0
 10
438.5830914473223
 20
-6.838601215949522
 30
0.0
 10
438.9907871012047
 20
-6.797461190047711
 30
0.0
 10
439.1685079340198
 20
-6.79731690891406
 30
0.0
 10
439.1711009174313
 20
-6.797314803822722
 30
0.0
  0
LINE
  5
108
330
1F
100
AcDbEntity
  8
0
  6
CONTINUOUS
 62
     7
100
AcDbLine
 10
12.1589221867
 20
-44.5169784274
 30
0.0
 11
-72.8410778133
 21
-44.5169784274
 31
0.0
  0
LINE
  5
109
330
1F
100
AcDbEntity
  8
0
  6
CONTINUOUS
 62
     7
100
AcDbLine
 10
-72.8410778133
 20
-44.5169784274
 30
0.0
 11
-72.8410778133
 21
-39.5169784274
 31
0.0
  0
LINE
  5
10A
330
1F
100
AcDbEntity
  8
0
  6
CONTINUOUS
 62
     7
100
AcDbLine
 10
-72.8410778133
 20
-39.5169784274
 30
0.0
 11
12.1589221867
 21
-39.5169784274
 31
0.0
  0
LINE
  5
10B
330
1F
100
AcDbEntity
  8
0
  6
CONTINUOUS
 62
     7
100
AcDbLine
 10
12.1589221867
 20
-44.5169784274
 30
0.0
 11
12.1589221867
 21
-39.5169784274
 31
0.0
  0
LINE
  5
10C
330
1F
100
AcDbEntity
  8
0
  6
CONTINUOUS
 62
     7
100
AcDbLine
 10
-72.8410778133
 20
-6.7973148038
 30
0.0
 11
12.1589221867
 21
-6.7973148038
 31
0.0
  0
LINE
  5
10D
330
1F
100
AcDbEntity
  8
0
  6
CONTINUOUS
 62
     7
100
AcDbLine
 10
12.1589221867
 20
-6.7973148038
 30
0.0
 11
12.1589221867
 21
-11.7973148038
 31
0.0
  0
LINE
  5
10E
330
1F
100
AcDbEntity
  8
0
  6
CONTINUOUS
 62
     7
100
AcDbLine
 10
12.1589221867
 20
-11.7973148038
 30
0.0
 11
-72.8410778133
 21
-11.7973148038
 31
0.0
  0
LINE
  5
10F
330
1F
100
AcDbEntity
  8
0
  6
CONTINUOUS
 62
     7
100
AcDbLine
 10
-72.8410778133
 20
-11.7973148038
 30
0.0
 11
-72.8410778133
 21
-6.7973148038
 31
0.0
  0
ARC
  5
110
330
1F
100
AcDbEntity
  8
0
  6
CONTINUOUS
 62
     7
100
AcDbCircle
 10
12.1589221867
 20
-46.7973148038
 30
0.0
 40
35.00000000000014
100
AcDbArc
 50
71.8103148958
 51
90.0
  0
ARC
  5
111
330
1F
100
AcDbEntity
  8
0
  6
CONTINUOUS
 62
     7
100
AcDbCircle
 10
21.5238389177
 20
-18.2964668406
 30
0.0
 40
5.000000000000012
100
AcDbArc
 50
348.1896851042
 51
71.8103148958
  0
ARC
  5
112
330
1F
100
AcDbEntity
  8
0
  6
CONTINUOUS
 62
     7
100
AcDbCircle
 10
-7.8410778133
 20
-12.1562986524
 30
0.0
 40
35.00000000000014
100
AcDbArc
 50
311.8103148958
 51
348.1896851042
  0
ARC
  5
113
330
1F
100
AcDbEntity
  8
0
  6
CONTINUOUS
 62
     7
100
AcDbCircle
 10
12.1589221867
 20
-34.5169784274
 30
0.0
 40
5.000000000000009
100
AcDbArc
 50
270.0
 51
311.8103148958
  0
CIRCLE
  5
114
330
1F
100
AcDbEntity
  8
0
  6
CONTINUOUS
 62
     7
100
AcDbCircle
 10
12.1589221867
 20
-23.6593554027
 30
0.0
 40
8.599999999999998
  0
LINE
  5
115
330
1F
100
AcDbEntity
  8
0
  6
CONTINUOUS
 62
     7
100
AcDbLine
 10
-72.8410778133
 20
-39.5169784274
 30
0.0
 11
-72.8410778133
 21
-11.7973148038
 31
0.0
  0
ARC
  5
116
330
1F
100
AcDbEntity
  8
0
  6
CONTINUOUS
 62
     7
100
AcDbCircle
 10
12.1589221867
 20
-46.7973148038
 30
0.0
 40
40.00000000000014
100
AcDbArc
 50
71.8103148958
 51
90.0
  0
LINE
  5
117
330
1F
100
AcDbEntity
  8
0
  6
CONTINUOUS
 62
     7
100
AcDbLine
 10
24.6454778281
 20
-8.7961841862
 30
0.0
 11
23.0846583729
 21
-13.5463255134
 31
0.0
  0
ARC
  5
118
330
1F
100
AcDbEntity
  8
0
  6
CONTINUOUS
 62
     7
100
AcDbCircle
 10
12.1589221867
 20
-34.5169784274
 30
0.0
 40
10.00000000000001
100
AcDbArc
 50
270.0
 51
311.8103148958
  0
LINE
  5
119
330
1F
100
AcDbEntity
  8
0
  6
CONTINUOUS
 62
     7
100
AcDbLine
 10
18.8255888533
 20
-41.9705383524
 30
0.0
 11
15.49225552
 21
-38.2437583899
 31
0.0
  0
CIRCLE
  5
11A
330
1F
100
AcDbEntity
  8
0
  6
CONTINUOUS
 62
     7
100
AcDbCircle
 10
12.1589221867
 20
-23.6593554027
 30
0.0
 40
8.099999999999996
  0
ARC
  5
11B
330
1F
100
AcDbEntity
  8
0
  6
CONTINUOUS
 62
     7
100
AcDbCircle
 10
21.5238389177
 20
-18.2964668406
 30
0.0
 40
10.0
100
AcDbArc
 50
348.1896851042
 51
71.8103148958
  0
LINE
  5
11C
330
1F
100
AcDbEntity
  8
0
  6
CONTINUOUS
 62
     7
100
AcDbLine
 10
31.3121444947
 20
-20.34318957
 30
0.0
 11
26.4179917062
 21
-19.3198282053
 31
0.0
  0
ARC
  5
11D
330
1F
100
AcDbEntity
  8
0
  6
CONTINUOUS
 62
     7
100
AcDbCircle
 10
-7.8410778133
 20
-12.1562986524
 30
0.0
 40
40.00000000000014
100
AcDbArc
 50
311.8103148958
 51
348.1896851042
  0
CIRCLE
  5
11E
330
1F
100
AcDbEntity
  8
0
  6
CONTINUOUS
 62
     7
100
AcDbCircle
 10
12.1589221867
 20
-23.6593554027
 30
0.0
 40
6.999999999999998
  0
CIRCLE
  5
11F
330
1F
100
AcDbEntity
  8
0
  6
CONTINUOUS
 62
     7
100
AcDbCircle
 10
12.1589221867
 20
-23.6593554027
 30
0.0
 40
7.999999999999998
  0
LINE
  5
120
330
1F
100
AcDbEntity
  8
0
  6
CONTINUOUS
 62
     7
100
AcDbLine
 10
15.6589221867
 20
-25.6800813449
 30
0.0
 11
15.6589221867
 21
-21.6386294606
 31
0.0
  0
LINE
  5
121
330
1F
100
AcDbEntity
  8
0
  6
CONTINUOUS
 62
     7
100
AcDbLine
 10
8.6589221867
 20
-21.6386294606
 30
0.0
 11
8.6589221867
 21
-25.6800813449
 31
0.0
  0
LINE
  5
122
330
1F
100
AcDbEntity
  8
0
  6
CONTINUOUS
 62
     7
100
AcDbLine
 10
12.1589221867
 20
-19.6179035184
 30
0.0
 11
8.6589221867
 21
-21.6386294606
 31
0.0
  0
LINE
  5
123
330
1F
100
AcDbEntity
  8
0
  6
CONTINUOUS
 62
     7
100
AcDbLine
 10
15.6589221867
 20
-25.6800813449
 30
0.0
 11
12.1589221867
 21
-27.7008072871
 31
0.0
  0
LINE
  5
124
330
1F
100
AcDbEntity
  8
0
  6
CONTINUOUS
 62
     7
100
AcDbLine
 10
12.1589221867
 20
-27.7008072871
 30
0.0
 11
8.6589221867
 21
-25.6800813449
 31
0.0
  0
LINE
  5
125
330
1F
100
AcDbEntity
  8
0
  6
CONTINUOUS
 62
     7
100
AcDbLine
 10
12.1589221867
 20
-19.6179035184
 30
0.0
 11
15.6589221867
 21
-21.6386294606
 31
0.0
  0
ARC
  5
126
330
1F
100
AcDbEntity
  8
0
  6
CONTINUOUS
 62
     7
100
AcDbCircle
 10
12.1589221867
 20
-23.6593554027
 30
0.0
 40
3.500000000000004
100
AcDbArc
 50
180.0
 51
240.0
  0
ARC
  5
127
330
1F
100
AcDbEntity
  8
0
  6
CONTINUOUS
 62
     7
100
AcDbCircle
 10
12.1589221867
 20
-23.6593554027
 30
0.0
 40
3.499999999999995
100
AcDbArc
 50
240.0
 51
300.0
  0
ARC
  5
128
330
1F
100
AcDbEntity
  8
0
  6
CONTINUOUS
 62
     7
100
AcDbCircle
 10
12.1589221867
 20
-23.6593554027
 30
0.0
 40
3.499999999999996
100
AcDbArc
 50
300.0
 51
0.0
  0
ARC
  5
129
330
1F
100
AcDbEntity
  8
0
  6
CONTINUOUS
 62
     7
100
AcDbCircle
 10
12.1589221867
 20
-23.6593554027
 30
0.0
 40
3.500000000000004
100
AcDbArc
 50
120.0
 51
180.0
  0
ARC
  5
12A
330
1F
100
AcDbEntity
  8
0
  6
CONTINUOUS
 62
     7
100
AcDbCircle
 10
12.1589221867
 20
-23.6593554027
 30
0.0
 40
3.500000000000004
100
AcDbArc
 50
60.0
 51
120.0
  0
ARC
  5
12B
330
1F
100
AcDbEntity
  8
0
  6
CONTINUOUS
 62
     7
100
AcDbCircle
 10
12.1589221867
 20
-23.6593554027
 30
0.0
 40
3.500000000000004
100
AcDbArc
 50
0.0
 51
60.0
  0
CIRCLE
  5
12C
330
1F
100
AcDbEntity
  8
0
  6
CONTINUOUS
 62
     7
100
AcDbCircle
 10
534.496448314
 20
-23.6593554027
 30
0.0
 40
6.999999999999999
  0
CIRCLE
  5
12D
330
1F
100
AcDbEntity
  8
0
  6
CONTINUOUS
 62
     7
100
AcDbCircle
 10
534.496448314
 20
-23.6593554027
 30
0.0
 40
8.000000000000037
  0
LINE
  5
12E
330
1F
100
AcDbEntity
  8
0
  6
CONTINUOUS
 62
     7
100
AcDbLine
 10
538.2316575358
 20
-22.1161297542
 30
0.0
 11
535.0275803095
 21
-19.6529565039
 31
0.0
  0
LINE
  5
12F
330
1F
100
AcDbEntity
  8
0
  6
CONTINUOUS
 62
     7
100
AcDbLine
 10
535.0275803095
 20
-19.6529565039
 30
0.0
 11
531.2923710876
 21
-21.1961821524
 31
0.0
  0
LINE
  5
130
330
1F
100
AcDbEntity
  8
0
  6
CONTINUOUS
 62
     7
100
AcDbLine
 10
530.7612390921
 20
-25.2025810513
 30
0.0
 11
531.2923710876
 21
-21.1961821524
 31
0.0
  0
LINE
  5
131
330
1F
100
AcDbEntity
  8
0
  6
CONTINUOUS
 62
     7
100
AcDbLine
 10
533.9653163184
 20
-27.6657543016
 30
0.0
 11
530.7612390921
 21
-25.2025810513
 31
0.0
  0
LINE
  5
132
330
1F
100
AcDbEntity
  8
0
  6
CONTINUOUS
 62
     7
100
AcDbLine
 10
533.9653163184
 20
-27.6657543016
 30
0.0
 11
537.7005255403
 21
-26.122528653
 31
0.0
  0
LINE
  5
133
330
1F
100
AcDbEntity
  8
0
  6
CONTINUOUS
 62
     7
100
AcDbLine
 10
538.2316575358
 20
-22.1161297542
 30
0.0
 11
537.7005255403
 21
-26.122528653
 31
0.0
  0
ARC
  5
134
330
1F
100
AcDbEntity
  8
0
  6
CONTINUOUS
 62
     7
100
AcDbCircle
 10
534.496448314
 20
-23.6593554027
 30
0.0
 40
3.49999999999999
100
AcDbArc
 50
292.4482808468
 51
352.4482808468
  0
ARC
  5
135
330
1F
100
AcDbEntity
  8
0
  6
CONTINUOUS
 62
     7
100
AcDbCircle
 10
534.496448314
 20
-23.6593554027
 30
0.0
 40
3.49999999999999
100
AcDbArc
 50
232.4482808468
 51
292.4482808468
  0
ARC
  5
136
330
1F
100
AcDbEntity
  8
0
  6
CONTINUOUS
 62
     7
100
AcDbCircle
 10
534.496448314
 20
-23.6593554027
 30
0.0
 40
3.500000000000071
100
AcDbArc
 50
172.4482808468
 51
232.4482808468
  0
ARC
  5
137
330
1F
100
AcDbEntity
  8
0
  6
CONTINUOUS
 62
     7
100
AcDbCircle
 10
534.496448314
 20
-23.6593554027
 30
0.0
 40
3.500000000000071
100
AcDbArc
 50
112.4482808468
 51
172.4482808468
  0
ARC
  5
138
330
1F
100
AcDbEntity
  8
0
  6
CONTINUOUS
 62
     7
100
AcDbCircle
 10
534.496448314
 20
-23.6593554027
 30
0.0
 40
3.500000000000054
100
AcDbArc
 50
52.4482808468
 51
112.4482808468
  0
ARC
  5
139
330
1F
100
AcDbEntity
  8
0
  6
CONTINUOUS
 62
     7
100
AcDbCircle
 10
534.496448314
 20
-23.6593554027
 30
0.0
 40
3.500000000000054
100
AcDbArc
 50
352.4482808468
 51
52.4482808468
  0
LINE
  5
13A
330
1F
100
AcDbEntity
  8
0
  6
CONTINUOUS
 62
     7
100
AcDbLine
 10
534.496448314
 20
-39.5169784274
 30
0.0
 11
619.496448314
 21
-39.5169784274
 31
0.0
  0
LINE
  5
13B
330
1F
100
AcDbEntity
  8
0
  6
CONTINUOUS
 62
     7
100
AcDbLine
 10
619.496448314
 20
-39.5169784274
 30
0.0
 11
619.496448314
 21
-44.5169784274
 31
0.0
  0
LINE
  5
13C
330
1F
100
AcDbEntity
  8
0
  6
CONTINUOUS
 62
     7
100
AcDbLine
 10
619.496448314
 20
-44.5169784274
 30
0.0
 11
534.496448314
 21
-44.5169784274
 31
0.0
  0
LINE
  5
13D
330
1F
100
AcDbEntity
  8
0
  6
CONTINUOUS
 62
     7
100
AcDbLine
 10
534.496448314
 20
-39.5169784274
 30
0.0
 11
534.496448314
 21
-44.5169784274
 31
0.0
  0
LINE
  5
13E
330
1F
100
AcDbEntity
  8
0
  6
CONTINUOUS
 62
     7
100
AcDbLine
 10
619.496448314
 20
-11.7973148038
 30
0.0
 11
534.496448314
 21
-11.7973148038
 31
0.0
  0
LINE
  5
13F
330
1F
100
AcDbEntity
  8
0
  6
CONTINUOUS
 62
     7
100
AcDbLine
 10
534.496448314
 20
-11.7973148038
 30
0.0
 11
534.496448314
 21
-6.7973148038
 31
0.0
  0
LINE
  5
140
330
1F
100
AcDbEntity
  8
0
  6
CONTINUOUS
 62
     7
100
AcDbLine
 10
534.496448314
 20
-6.7973148038
 30
0.0
 11
619.496448314
 21
-6.7973148038
 31
0.0
  0
LINE
  5
141
330
1F
100
AcDbEntity
  8
0
  6
CONTINUOUS
 62
     7
100
AcDbLine
 10
619.496448314
 20
-6.7973148038
 30
0.0
 11
619.496448314
 21
-11.7973148038
 31
0.0
  0
ARC
  5
142
330
1F
100
AcDbEntity
  8
0
  6
CONTINUOUS
 62
     7
100
AcDbCircle
 10
554.496448314
 20
-12.1562986524
 30
0.0
 40
35.00000000000009
100
AcDbArc
 50
191.8103148958
 51
228.1896851042
  0
ARC
  5
143
330
1F
100
AcDbEntity
  8
0
  6
CONTINUOUS
 62
     7
100
AcDbCircle
 10
525.1315315829
 20
-18.2964668406
 30
0.0
 40
5.000000000000043
100
AcDbArc
 50
108.1896851042
 51
191.8103148958
  0
ARC
  5
144
330
1F
100
AcDbEntity
  8
0
  6
CONTINUOUS
 62
     7
100
AcDbCircle
 10
534.496448314
 20
-46.7973148038
 30
0.0
 40
35.00000000000014
100
AcDbArc
 50
90.0
 51
108.1896851042
  0
ARC
  5
145
330
1F
100
AcDbEntity
  8
0
  6
CONTINUOUS
 62
     7
100
AcDbCircle
 10
534.496448314
 20
-34.5169784274
 30
0.0
 40
5.0
100
AcDbArc
 50
228.1896851042
 51
270.0
  0
CIRCLE
  5
146
330
1F
100
AcDbEntity
  8
0
  6
CONTINUOUS
 62
     7
100
AcDbCircle
 10
534.496448314
 20
-23.6593554027
 30
0.0
 40
8.600000000000023
  0
LINE
  5
147
330
1F
100
AcDbEntity
  8
0
  6
CONTINUOUS
 62
     7
100
AcDbLine
 10
619.496448314
 20
-39.5169784274
 30
0.0
 11
619.496448314
 21
-11.7973148038
 31
0.0
  0
CIRCLE
  5
148
330
1F
100
AcDbEntity
  8
0
  6
CONTINUOUS
 62
     7
100
AcDbCircle
 10
534.496448314
 20
-23.6593554027
 30
0.0
 40
8.100000000000023
  0
ARC
  5
149
330
1F
100
AcDbEntity
  8
0
  6
CONTINUOUS
 62
     7
100
AcDbCircle
 10
534.496448314
 20
-34.5169784274
 30
0.0
 40
10.0
100
AcDbArc
 50
228.1896851042
 51
270.0
  0
LINE
  5
14A
330
1F
100
AcDbEntity
  8
0
  6
CONTINUOUS
 62
     7
100
AcDbLine
 10
531.1631149806
 20
-38.2437583899
 30
0.0
 11
527.8297816473
 21
-41.9705383524
 31
0.0
  0
LINE
  5
14B
330
1F
100
AcDbEntity
  8
0
  6
CONTINUOUS
 62
     7
100
AcDbLine
 10
523.5707121277
 20
-13.5463255134
 30
0.0
 11
522.0098926726
 21
-8.7961841862
 31
0.0
  0
ARC
  5
14C
330
1F
100
AcDbEntity
  8
0
  6
CONTINUOUS
 62
     7
100
AcDbCircle
 10
534.496448314
 20
-46.7973148038
 30
0.0
 40
40.00000000000014
100
AcDbArc
 50
90.0
 51
108.1896851042
  0
ARC
  5
14D
330
1F
100
AcDbEntity
  8
0
  6
CONTINUOUS
 62
     7
100
AcDbCircle
 10
554.496448314
 20
-12.1562986524
 30
0.0
 40
40.00000000000017
100
AcDbArc
 50
191.8103148958
 51
228.1896851042
  0
LINE
  5
14E
330
1F
100
AcDbEntity
  8
0
  6
CONTINUOUS
 62
     7
100
AcDbLine
 10
520.2373787944
 20
-19.3198282053
 30
0.0
 11
515.3432260059
 21
-20.34318957
 31
0.0
  0
ARC
  5
14F
330
1F
100
AcDbEntity
  8
0
  6
CONTINUOUS
 62
     7
100
AcDbCircle
 10
525.1315315829
 20
-18.2964668406
 30
0.0
 40
10.0000000000001
100
AcDbArc
 50
108.1896851042
 51
191.8103148958
  0
ENDSEC
  0
SECTION
  2
OBJECTS
  0
DICTIONARY
  5
C
330
0
100
AcDbDictionary
  3
ACAD_GROUP
350
D
  3
ACAD_MLINESTYLE
350
17
  3
ACAD_SCALELIST
350
47
  3
DWGPROPS
350
150
  0
DICTIONARY
  5
D
102
{ACAD_REACTORS
330
C
102
}
330
C
100
AcDbDictionary
  0
DICTIONARY
  5
17
102
{ACAD_REACTORS
330
C
102
}
330
C
100
AcDbDictionary
  3
STANDARD
350
18
  0
DICTIONARY
  5
47
102
{ACAD_REACTORS
330
C
102
}
330
C
100
AcDbDictionary
  0
XRECORD
  5
150
102
{ACAD_REACTORS
330
C
102
}
330
C
100
AcDbXrecord
  1
DWGPROPS COOKIE
  2

  3

  4

  6

  7

  8
Pedro.Queiros
  9

300
=
301
=
302
=
303
=
304
=
305
=
306
=
307
=
308
=
309
=
 40
0.0
 41
2459180.646896412
 42
2459180.646896667
  1

 90
        0
  0
MLINESTYLE
  5
18
102
{ACAD_REACTORS
330
17
102
}
330
17
100
AcDbMlineStyle
  2
Standard
 70
     0
  3

 62
   256
 51
90.0
 52
90.0
 71
     2
 49
0.5
 62
   256
  6
BYLAYER
 49
-0.5
 62
   256
  6
BYLAYER
  0
ENDSEC
  0
EOF
