  0
SECTION
  2
HEADER
  9
$ACADVER
  1
AC1014
  9
$ACADMAINTVER
 70
     9
  9
$DWGCODEPAGE
  3
ANSI_1252
  9
$INSBASE
 10
0.0
 20
0.0
 30
0.0
  9
$EXTMIN
 10
0.0
 20
0.0
 30
0.0
  9
$EXTMAX
 10
279.4
 20
215.9
 30
0.0
  9
$LIMMIN
 10
0.0
 20
0.0
  9
$LIMMAX
 10
279.4
 20
215.9
  9
$ORTHOMODE
 70
     0
  9
$REGENMODE
 70
     1
  9
$FILLMODE
 70
     1
  9
$QTEXTMODE
 70
     0
  9
$MIRRTEXT
 70
     1
  9
$DRAGMODE
 70
     2
  9
$LTSCALE
 40
1.0
  9
$OSMODE
 70
    37
  9
$ATTMODE
 70
     1
  9
$TEXTSIZE
 40
3.5
  9
$TRACEWID
 40
1.0
  9
$TEXTSTYLE
  7
STANDARD
  9
$CLAYER
  8
0
  9
$CELTYPE
  6
BYLAYER
  9
$CECOLOR
 62
   256
  9
$CELTSCALE
 40
1.0
  9
$DELOBJ
 70
     1
  9
$DISPSILH
 70
     0
  9
$DIMSCALE
 40
1.0
  9
$DIMASZ
 40
3.302
  9
$DIMEXO
 40
1.0
  9
$DIMDLI
 40
3.75
  9
$DIMRND
 40
0.0
  9
$DIMDLE
 40
0.0
  9
$DIMEXE
 40
1.0
  9
$DIMTP
 40
0.0
  9
$DIMTM
 40
0.0
  9
$DIMTXT
 40
3.5
  9
$DIMCEN
 40
2.5
  9
$DIMTSZ
 40
0.0
  9
$DIMTOL
 70
     0
  9
$DIMLIM
 70
     0
  9
$DIMTIH
 70
     1
  9
$DIMTOH
 70
     1
  9
$DIMSE1
 70
     0
  9
$DIMSE2
 70
     0
  9
$DIMTAD
 70
     1
  9
$DIMZIN
 70
     1
  9
$DIMBLK
  1

  9
$DIMASO
 70
     1
  9
$DIMSHO
 70
     1
  9
$DIMPOST
  1

  9
$DIMAPOST
  1

  9
$DIMALT
 70
     0
  9
$DIMALTD
 70
     3
  9
$DIMALTF
 40
0.0393700787
  9
$DIMLFAC
 40
5.0
  9
$DIMTOFL
 70
     1
  9
$DIMTVP
 40
0.0
  9
$DIMTIX
 70
     0
  9
$DIMSOXD
 70
     0
  9
$DIMSAH
 70
     0
  9
$DIMBLK1
  1

  9
$DIMBLK2
  1

  9
$DIMSTYLE
  2
ISO-25
  9
$DIMCLRD
 70
     0
  9
$DIMCLRE
 70
     0
  9
$DIMCLRT
 70
     0
  9
$DIMTFAC
 40
1.0
  9
$DIMGAP
 40
1.524
  9
$DIMJUST
 70
     0
  9
$DIMSD1
 70
     0
  9
$DIMSD2
 70
     0
  9
$DIMTOLJ
 70
     0
  9
$DIMTZIN
 70
     1
  9
$DIMALTZ
 70
     0
  9
$DIMALTTZ
 70
     0
  9
$DIMFIT
 70
     3
  9
$DIMUPT
 70
     0
  9
$DIMUNIT
 70
     2
  9
$DIMDEC
 70
     2
  9
$DIMTDEC
 70
     2
  9
$DIMALTU
 70
     2
  9
$DIMALTTD
 70
     3
  9
$DIMTXSTY
  7
STANDARD
  9
$DIMAUNIT
 70
     0
  9
$LUNITS
 70
     2
  9
$LUPREC
 70
     2
  9
$SKETCHINC
 40
1.0
  9
$FILLETRAD
 40
10.0
  9
$AUNITS
 70
     0
  9
$AUPREC
 70
     2
  9
$MENU
  1
.
  9
$ELEVATION
 40
0.0
  9
$PELEVATION
 40
0.0
  9
$THICKNESS
 40
0.0
  9
$LIMCHECK
 70
     0
  9
$CHAMFERA
 40
0.0
  9
$CHAMFERB
 40
0.0
  9
$CHAMFERC
 40
0.0
  9
$CHAMFERD
 40
0.0
  9
$SKPOLY
 70
     0
  9
$TDCREATE
 40
2459180.645163889
  9
$TDUPDATE
 40
2459180.64516419
  9
$TDINDWG
 40
0.0000000116
  9
$TDUSRTIMER
 40
0.0000000116
  9
$USRTIMER
 70
     1
  9
$ANGBASE
 50
0.0
  9
$ANGDIR
 70
     0
  9
$PDMODE
 70
     0
  9
$PDSIZE
 40
-1.0
  9
$PLINEWID
 40
0.0
  9
$COORDS
 70
     1
  9
$SPLFRAME
 70
     0
  9
$SPLINETYPE
 70
     6
  9
$SPLINESEGS
 70
     8
  9
$ATTDIA
 70
     0
  9
$ATTREQ
 70
     1
  9
$HANDLING
 70
     1
  9
$HANDSEED
  5
151
  9
$SURFTAB1
 70
     6
  9
$SURFTAB2
 70
     6
  9
$SURFTYPE
 70
     6
  9
$SURFU
 70
     6
  9
$SURFV
 70
     6
  9
$UCSNAME
  2

  9
$UCSORG
 10
0.0
 20
0.0
 30
0.0
  9
$UCSXDIR
 10
1.0
 20
0.0
 30
0.0
  9
$UCSYDIR
 10
0.0
 20
1.0
 30
0.0
  9
$PUCSNAME
  2

  9
$PUCSORG
 10
0.0
 20
0.0
 30
0.0
  9
$PUCSXDIR
 10
1.0
 20
0.0
 30
0.0
  9
$PUCSYDIR
 10
0.0
 20
1.0
 30
0.0
  9
$USERI1
 70
     0
  9
$USERI2
 70
     0
  9
$USERI3
 70
     0
  9
$USERI4
 70
     0
  9
$USERI5
 70
     0
  9
$USERR1
 40
0.0
  9
$USERR2
 40
0.0
  9
$USERR3
 40
0.0
  9
$USERR4
 40
0.0
  9
$USERR5
 40
0.0
  9
$WORLDVIEW
 70
     1
  9
$SHADEDGE
 70
     3
  9
$SHADEDIF
 70
    70
  9
$TILEMODE
 70
     1
  9
$MAXACTVP
 70
    64
  9
$PINSBASE
 10
0.0
 20
0.0
 30
0.0
  9
$PLIMCHECK
 70
     0
  9
$PEXTMIN
 10
1.0000000000E+20
 20
1.0000000000E+20
 30
1.0000000000E+20
  9
$PEXTMAX
 10
-1.0000000000E+20
 20
-1.0000000000E+20
 30
-1.0000000000E+20
  9
$PLIMMIN
 10
0.0
 20
0.0
  9
$PLIMMAX
 10
420.0
 20
297.0
  9
$UNITMODE
 70
     0
  9
$VISRETAIN
 70
     1
  9
$PLINEGEN
 70
     0
  9
$PSLTSCALE
 70
     1
  9
$TREEDEPTH
 70
  3020
  9
$PICKSTYLE
 70
     1
  9
$CMLSTYLE
  2
STANDARD
  9
$CMLJUST
 70
     0
  9
$CMLSCALE
 40
20.0
  9
$PROXYGRAPHICS
 70
     1
  9
$MEASUREMENT
 70
     1
  0
ENDSEC
  0
SECTION
  2
CLASSES
  0
CLASS
  1
ACDBDICTIONARYWDFLT
  2
AcDbDictionaryWithDefault
  3
ObjectDBX Classes
 90
        0
280
     0
281
     0
  0
CLASS
  1
VISUALSTYLE
  2
AcDbVisualStyle
  3
ObjectDBX Classes
 90
     4095
280
     0
281
     0
  0
CLASS
  1
MATERIAL
  2
AcDbMaterial
  3
ObjectDBX Classes
 90
     1153
280
     0
281
     0
  0
CLASS
  1
SCALE
  2
AcDbScale
  3
ObjectDBX Classes
 90
     1153
280
     0
281
     0
  0
CLASS
  1
TABLESTYLE
  2
AcDbTableStyle
  3
ObjectDBX Classes
 90
     4095
280
     0
281
     0
  0
CLASS
  1
MLEADERSTYLE
  2
AcDbMLeaderStyle
  3
ACDB_MLEADERSTYLE_CLASS
 90
     4095
280
     0
281
     0
  0
CLASS
  1
SUN
  2
AcDbSun
  3
SCENEOE
 90
     1153
280
     0
281
     0
  0
CLASS
  1
XRECORD
  2
AcDbXrecord
  3
ObjectDBX Classes
 90
        0
280
     0
281
     0
  0
CLASS
  1
LWPOLYLINE
  2
AcDbPolyline
  3
ObjectDBX Classes
 90
        0
280
     0
281
     1
  0
CLASS
  1
HATCH
  2
AcDbHatch
  3
ObjectDBX Classes
 90
        0
280
     0
281
     1
  0
ENDSEC
  0
SECTION
  2
TABLES
  0
TABLE
  2
VPORT
  5
8
330
0
100
AcDbSymbolTable
 70
     1
  0
VPORT
  5
29
330
8
100
AcDbSymbolTableRecord
100
AcDbViewportTableRecord
  2
*ACTIVE
 70
     0
 10
0.0
 20
0.0
 11
1.0
 21
1.0
 12
139.7
 22
107.95
 13
0.0
 23
0.0
 14
10.0
 24
10.0
 15
10.0
 25
10.0
 16
0.0
 26
0.0
 36
1.0
 17
0.0
 27
0.0
 37
0.0
 40
215.9
 41
1.2941176471
 42
50.0
 43
0.0
 44
0.0
 50
0.0
 51
0.0
 71
     0
 72
  2000
 73
     1
 74
     3
 75
     0
 76
     0
 77
     0
 78
     0
  0
ENDTAB
  0
TABLE
  2
LTYPE
  5
5
330
0
100
AcDbSymbolTable
 70
     6
  0
LTYPE
  5
14
330
5
100
AcDbSymbolTableRecord
100
AcDbLinetypeTableRecord
  2
BYBLOCK
 70
     0
  3

 72
    65
 73
     0
 40
0.0
  0
LTYPE
  5
15
330
5
100
AcDbSymbolTableRecord
100
AcDbLinetypeTableRecord
  2
BYLAYER
 70
     0
  3

 72
    65
 73
     0
 40
0.0
  0
LTYPE
  5
16
330
5
100
AcDbSymbolTableRecord
100
AcDbLinetypeTableRecord
  2
CONTINUOUS
 70
     0
  3
Solid line
 72
    65
 73
     0
 40
0.0
  0
LTYPE
  5
6E
330
5
100
AcDbSymbolTableRecord
100
AcDbLinetypeTableRecord
  2
HIDDEN
 70
     0
  3
Hidden __ __ __ __ __ __ __ __ __ __ __ __ __ __
 72
    65
 73
     2
 40
1.905
 49
1.27
 74
     0
 49
-0.635
 74
     0
  0
LTYPE
  5
6F
330
5
100
AcDbSymbolTableRecord
100
AcDbLinetypeTableRecord
  2
PHANTOM
 70
     0
  3
Phantom ______  __  __  ______  __  __  ______
 72
    65
 73
     6
 40
12.7
 49
6.35
 74
     0
 49
-1.27
 74
     0
 49
1.27
 74
     0
 49
-1.27
 74
     0
 49
1.27
 74
     0
 49
-1.27
 74
     0
  0
LTYPE
  5
70
330
5
100
AcDbSymbolTableRecord
100
AcDbLinetypeTableRecord
  2
CENTER
 70
     0
  3
Center ____ _ ____ _ ____ _ ____ _ ____ _ ____
 72
    65
 73
     4
 40
10.16
 49
6.35
 74
     0
 49
-1.27
 74
     0
 49
1.27
 74
     0
 49
-1.27
 74
     0
  0
LTYPE
  5
71
330
5
100
AcDbSymbolTableRecord
100
AcDbLinetypeTableRecord
  2
CENTERX2
 70
     0
  3
Center (2x) ________  __  ________  __  _____
 72
    65
 73
     4
 40
20.32
 49
12.7
 74
     0
 49
-2.54
 74
     0
 49
2.54
 74
     0
 49
-2.54
 74
     0
  0
LTYPE
  5
72
330
5
100
AcDbSymbolTableRecord
100
AcDbLinetypeTableRecord
  2
DOT2
 70
     0
  3
Dot (.5x) ........................................
 72
    65
 73
     2
 40
0.635
 49
0.0
 74
     0
 49
-0.635
 74
     0
  0
ENDTAB
  0
TABLE
  2
LAYER
  5
2
330
0
100
AcDbSymbolTable
 70
     1
  0
LAYER
  5
10
330
2
100
AcDbSymbolTableRecord
100
AcDbLayerTableRecord
  2
0
 70
     0
 62
     7
  6
CONTINUOUS
  0
ENDTAB
  0
TABLE
  2
STYLE
  5
3
330
0
100
AcDbSymbolTable
 70
     1
  0
STYLE
  5
11
330
3
100
AcDbSymbolTableRecord
100
AcDbTextStyleTableRecord
  2
STANDARD
 70
     0
 40
0.0
 41
1.0
 50
0.0
 71
     0
 42
3.5
  3
txt
  4

  0
ENDTAB
  0
TABLE
  2
VIEW
  5
6
330
0
100
AcDbSymbolTable
 70
     0
  0
ENDTAB
  0
TABLE
  2
UCS
  5
7
330
0
100
AcDbSymbolTable
 70
     0
  0
ENDTAB
  0
TABLE
  2
APPID
  5
9
330
0
100
AcDbSymbolTable
 70
     1
  0
APPID
  5
12
330
9
100
AcDbSymbolTableRecord
100
AcDbRegAppTableRecord
  2
ACAD
 70
     0
  0
ENDTAB
  0
TABLE
  2
DIMSTYLE
  5
A
330
0
100
AcDbSymbolTable
 70
     1
  0
DIMSTYLE
105
27
330
A
100
AcDbSymbolTableRecord
100
AcDbDimStyleTableRecord
  2
ISO-25
 70
     0
  3

  4

  5

  6

  7

 40
1.0
 41
2.5
 42
0.625
 43
3.75
 44
1.25
 45
0.0
 46
0.0
 47
0.0
 48
0.0
140
2.5
141
2.5
142
0.0
143
0.0393700787
144
1.0
145
0.0
146
1.0
147
0.625
 71
     0
 72
     0
 73
     0
 74
     0
 75
     0
 76
     0
 77
     1
 78
     8
170
     0
171
     3
172
     1
173
     0
174
     0
175
     0
176
     0
177
     0
178
     0
270
     2
271
     2
272
     2
273
     2
274
     3
340
11
275
     0
280
     0
281
     0
282
     0
283
     0
284
     8
285
     0
286
     0
287
     3
288
     0
  0
ENDTAB
  0
TABLE
  2
BLOCK_RECORD
  5
1
330
0
100
AcDbSymbolTable
 70
     1
  0
BLOCK_RECORD
  5
1F
330
1
100
AcDbSymbolTableRecord
100
AcDbBlockTableRecord
  2
*MODEL_SPACE
  0
BLOCK_RECORD
  5
1B
330
1
100
AcDbSymbolTableRecord
100
AcDbBlockTableRecord
  2
*PAPER_SPACE
  0
BLOCK_RECORD
  5
23
330
1
100
AcDbSymbolTableRecord
100
AcDbBlockTableRecord
  2
*PAPER_SPACE0
  0
ENDTAB
  0
ENDSEC
  0
SECTION
  2
BLOCKS
  0
BLOCK
  5
20
330
1F
100
AcDbEntity
  8
0
100
AcDbBlockBegin
  2
*MODEL_SPACE
 70
     0
 10
0.0
 20
0.0
 30
0.0
  3
*MODEL_SPACE
  1

  0
ENDBLK
  5
21
330
1F
100
AcDbEntity
  8
0
100
AcDbBlockEnd
  0
BLOCK
  5
1C
330
1B
100
AcDbEntity
 67
     1
  8
0
100
AcDbBlockBegin
  2
*PAPER_SPACE
 70
     0
 10
0.0
 20
0.0
 30
0.0
  3
*PAPER_SPACE
  1

  0
ENDBLK
  5
1D
330
1B
100
AcDbEntity
 67
     1
  8
0
100
AcDbBlockEnd
  0
BLOCK
  5
24
330
23
100
AcDbEntity
  8
0
100
AcDbBlockBegin
  2
*PAPER_SPACE0
 70
     0
 10
0.0
 20
0.0
 30
0.0
  3
*PAPER_SPACE0
  1

  0
ENDBLK
  5
25
330
23
100
AcDbEntity
  8
0
100
AcDbBlockEnd
  0
ENDSEC
  0
SECTION
  2
ENTITIES
  0
LINE
  5
73
330
1F
100
AcDbEntity
  8
0
  6
CONTINUOUS
 62
     7
100
AcDbLine
 10
-152.3288990826
 20
67.1171346391
 30
0.0
 11
437.6711009174
 21
67.1171346391
 31
0.0
  0
LINE
  5
74
330
1F
100
AcDbEntity
  8
0
  6
CONTINUOUS
 62
     7
100
AcDbLine
 10
428.3308593968
 20
105.8469681011
 30
0.0
 11
-142.9730939242
 21
105.8469681011
 31
0.0
  0
SPLINE
  5
75
330
1F
100
AcDbEntity
  8
0
  6
CONTINUOUS
 62
     7
100
AcDbSpline
210
0.0
220
0.0
230
1.0
 70
     8
 71
     3
 72
    13
 73
     9
 74
     0
 42
0.00000001
 43
0.00000001
 40
0.0
 40
0.0
 40
0.0
 40
0.0
 40
0.0570666365341391
 40
0.2246047822112869
 40
0.4691560003482245
 40
0.7211293847374773
 40
0.9513140639118647
 40
0.9999999999999999
 40
0.9999999999999999
 40
0.9999999999999999
 40
0.9999999999999999
 10
-152.3281984473088
 20
99.13131469609603
 30
0.0
 10
-152.3283048124248
 20
99.13615189662711
 30
0.0
 10
-152.3287234478172
 20
99.15519031272764
 30
0.0
 10
-152.31328210609
 20
99.25032497965455
 30
0.0
 10
-152.2368944549604
 20
99.38950796755542
 30
0.0
 10
-152.094378355036
 20
99.501790123849
 30
0.0
 10
-151.9592043456157
 20
99.54062297950605
 30
0.0
 10
-151.9086722779964
 20
99.53745154684975
 30
0.0
 10
-151.8998502620511
 20
99.53689787012958
 30
0.0
  0
SPLINE
  5
76
330
1F
100
AcDbEntity
  8
0
  6
CONTINUOUS
 62
     7
100
AcDbSpline
210
0.0
220
0.0
230
1.0
 70
     8
 71
     3
 72
    18
 73
    14
 74
     0
 42
0.00000001
 43
0.00000001
 40
0.0
 40
0.0
 40
0.0
 40
0.0
 40
0.0141699841842797
 40
0.0647141558981059
 40
0.1114466418874938
 40
0.166194153774577
 40
0.2354154422389771
 40
0.3323119863701742
 40
0.4670946797135647
 40
0.6231361693158245
 40
0.7944591124091059
 40
0.9549689371372715
 40
1.0
 40
1.0
 40
1.0
 40
1.0
 10
-147.327580383496
 20
99.5645018094277
 30
0.0
 10
-147.2664333575383
 20
99.55702262107614
 30
0.0
 10
-146.9871755885049
 20
99.52286525331351
 30
0.0
 10
-146.512529383236
 20
99.69925820887445
 30
0.0
 10
-145.9566014643634
 20
100.0444779136814
 30
0.0
 10
-145.4337232799849
 20
100.5700711075485
 30
0.0
 10
-144.8842977418487
 20
101.3351321828784
 30
0.0
 10
-144.245460509323
 20
102.4347303433258
 30
0.0
 10
-143.6032083672305
 20
103.9135206732504
 30
0.0
 10
-142.9768320064891
 20
105.6777022842276
 30
0.0
 10
-142.5177498957404
 20
107.5453572864174
 30
0.0
 10
-142.3421488921456
 20
108.9795734575048
 30
0.0
 10
-142.3312802469684
 20
109.749850411595
 30
0.0
 10
-142.3288990825688
 20
109.9186070533897
 30
0.0
  0
LINE
  5
77
330
1F
100
AcDbEntity
  8
0
  6
CONTINUOUS
 62
     7
100
AcDbLine
 10
-151.9001298555
 20
99.5392816572
 30
0.0
 11
-147.3288990826
 21
99.5392816572
 31
0.0
  0
ARC
  5
78
330
1F
100
AcDbEntity
  8
0
  6
CONTINUOUS
 62
     7
100
AcDbCircle
 10
-153.8288990826
 20
68.6171346391
 30
0.0
 40
1.500000000000057
100
AcDbArc
 50
270.0
 51
0.0
  0
ARC
  5
79
330
1F
100
AcDbEntity
  8
0
  6
CONTINUOUS
 62
     7
100
AcDbCircle
 10
-167.3288990826
 20
72.1171346391
 30
0.0
 40
5.0
100
AcDbArc
 50
180.0
 51
270.0
  0
LINE
  5
7A
330
1F
100
AcDbEntity
  8
0
  6
CONTINUOUS
 62
     7
100
AcDbLine
 10
-167.3288990826
 20
67.1171346391
 30
0.0
 11
-153.8288990826
 21
67.1171346391
 31
0.0
  0
SPLINE
  5
7B
330
1F
100
AcDbEntity
  8
0
  6
CONTINUOUS
 62
     7
100
AcDbSpline
210
0.0
220
0.0
230
1.0
 70
     8
 71
     3
 72
    17
 73
    13
 74
     0
 42
0.00000001
 43
0.00000001
 40
0.0
 40
0.0
 40
0.0
 40
0.0
 40
0.0851566259649354
 40
0.2515470278136242
 40
0.424227464646754
 40
0.6077690147578271
 40
0.737374889665619
 40
0.812882191872372
 40
0.8823486063680475
 40
0.9346366319866537
 40
0.9877250567278755
 40
1.0
 40
1.0
 40
1.0
 40
1.0
 10
427.6711009174312
 20
109.9186070533897
 30
0.0
 10
427.6793448411726
 20
109.5989282709209
 30
0.0
 10
427.70369684539
 20
108.6546183399683
 30
0.0
 10
427.9623014268479
 20
107.0348729363259
 30
0.0
 10
428.522552707813
 20
105.0368060560895
 30
0.0
 10
429.2313660209205
 20
103.1765789055642
 30
0.0
 10
429.9789169855724
 20
101.7212706639374
 30
0.0
 10
430.6279948612174
 20
100.7538950461709
 30
0.0
 10
431.1998010718974
 20
100.1146713911722
 30
0.0
 10
431.8320119883348
 20
99.7058497125482
 30
0.0
 10
432.3349921920422
 20
99.51865147786464
 30
0.0
 10
432.616569832702
 20
99.55503238118074
 30
0.0
 10
432.6694488331399
 20
99.56186454938086
 30
0.0
  0
LINE
  5
7C
330
1F
100
AcDbEntity
  8
0
  6
CONTINUOUS
 62
     7
100
AcDbLine
 10
432.6711009174
 20
99.5392816572
 30
0.0
 11
437.2423316903
 21
99.5392816572
 31
0.0
  0
SPLINE
  5
7D
330
1F
100
AcDbEntity
  8
0
  6
CONTINUOUS
 62
     7
100
AcDbSpline
210
0.0
220
0.0
230
1.0
 70
     8
 71
     3
 72
    13
 73
     9
 74
     0
 42
0.00000001
 43
0.00000001
 40
0.0
 40
0.0
 40
0.0
 40
0.0
 40
0.0150772356461462
 40
0.246901400109903
 40
0.5219093482718423
 40
0.7492871663287378
 40
0.9285587461325283
 40
1.0
 40
1.0
 40
1.0
 40
1.0
 10
437.2407898290704
 20
99.53851027868149
 30
0.0
 10
437.2433839714559
 20
99.5387225132649
 30
0.0
 10
437.2858650603014
 20
99.54219801878997
 30
0.0
 10
437.4213301995416
 20
99.51067339078203
 30
0.0
 10
437.5684137608161
 20
99.40173981424371
 30
0.0
 10
437.6513029100425
 20
99.26156995131808
 30
0.0
 10
437.6706805150174
 20
99.1612946216933
 30
0.0
 10
437.6702715422994
 20
99.13889737272322
 30
0.0
 10
437.6701550044927
 20
99.13251522017771
 30
0.0
  0
ARC
  5
7E
330
1F
100
AcDbEntity
  8
0
  6
CONTINUOUS
 62
     7
100
AcDbCircle
 10
452.6711009174
 20
72.1171346391
 30
0.0
 40
5.0
100
AcDbArc
 50
270.0
 51
0.0
  0
LINE
  5
7F
330
1F
100
AcDbEntity
  8
0
  6
CONTINUOUS
 62
     7
100
AcDbLine
 10
439.1711009174
 20
67.1171346391
 30
0.0
 11
452.6711009174
 21
67.1171346391
 31
0.0
  0
ARC
  5
80
330
1F
100
AcDbEntity
  8
0
  6
CONTINUOUS
 62
     7
100
AcDbCircle
 10
439.1711009174
 20
68.6171346391
 30
0.0
 40
1.500000000000057
100
AcDbArc
 50
180.0
 51
270.0
  0
LINE
  5
81
330
1F
100
AcDbEntity
  8
0
  6
CONTINUOUS
 62
     7
100
AcDbLine
 10
437.6711009174
 20
98.9686070115
 30
0.0
 11
-152.3288990826
 21
98.9686070115
 31
0.0
  0
LINE
  5
82
330
1F
100
AcDbEntity
  8
0
  6
CONTINUOUS
 62
     7
100
AcDbLine
 10
437.6711009174
 20
97.3333185772
 30
0.0
 11
437.6711009174
 21
73.9954957287
 31
0.0
  0
LINE
  5
83
330
1F
100
AcDbEntity
  8
0
  6
CONTINUOUS
 62
     7
100
AcDbLine
 10
-152.3288990826
 20
73.9954957287
 30
0.0
 11
437.6711009174
 21
73.9954957287
 31
0.0
  0
LINE
  5
84
330
1F
100
AcDbEntity
  8
0
  6
CONTINUOUS
 62
     7
100
AcDbLine
 10
-152.3288990826
 20
97.3333185772
 30
0.0
 11
-152.3288990826
 21
73.9954957287
 31
0.0
  0
LINE
  5
85
330
1F
100
AcDbEntity
  8
0
  6
CONTINUOUS
 62
     7
100
AcDbLine
 10
437.6711009174
 20
73.9954957287
 30
0.0
 11
437.6711009174
 21
67.1171346391
 31
0.0
  0
LINE
  5
86
330
1F
100
AcDbEntity
  8
0
  6
CONTINUOUS
 62
     7
100
AcDbLine
 10
-152.3288990826
 20
67.1171346391
 30
0.0
 11
-152.3288990826
 21
73.9954957287
 31
0.0
  0
SPLINE
  5
87
330
1F
100
AcDbEntity
  8
0
  6
CONTINUOUS
 62
     7
100
AcDbSpline
210
0.0
220
0.0
230
1.0
 70
     8
 71
     3
 72
    15
 73
    11
 74
     0
 42
0.00000001
 43
0.00000001
 40
0.0
 40
0.0
 40
0.0
 40
0.0
 40
0.0893751690298141
 40
0.1095645385658481
 40
0.2172345330292147
 40
0.3318620906179745
 40
0.5192586782608775
 40
0.7915752418268481
 40
0.9973497516465821
 40
1.0
 40
1.0
 40
1.0
 40
1.0
 10
-152.3288990825687
 20
99.12506809477804
 30
0.0
 10
-152.3323847799804
 20
99.09358915253208
 30
0.0
 10
-152.3366578776725
 20
99.05499928669842
 30
0.0
 10
-152.3762904535724
 20
99.03210889242948
 30
0.0
 10
-152.4509723047819
 20
99.05729112094575
 30
0.0
 10
-152.6408904774151
 20
99.21603251359463
 30
0.0
 10
-152.9689088759891
 20
99.55634553354199
 30
0.0
 10
-153.3862260812355
 20
100.0282491816086
 30
0.0
 10
-153.6939310309179
 20
100.3834338213488
 30
0.0
 10
-153.8272044297412
 20
100.5373248386864
 30
0.0
 10
-153.8288990825689
 20
100.5392816571511
 30
0.0
  0
SPLINE
  5
88
330
1F
100
AcDbEntity
  8
0
  6
CONTINUOUS
 62
     7
100
AcDbSpline
210
0.0
220
0.0
230
1.0
 70
     8
 71
     3
 72
    18
 73
    14
 74
     0
 42
0.00000001
 43
0.00000001
 40
0.0
 40
0.0
 40
0.0
 40
0.0
 40
0.0011796943501639
 40
0.0082233704276217
 40
0.0299174381789054
 40
0.1038751228409787
 40
0.3115287746798079
 40
0.5193487396350157
 40
0.6762543328245637
 40
0.8325521024206365
 40
0.9280120496831434
 40
0.9688150873678644
 40
1.0
 40
1.0
 40
1.0
 40
1.0
 10
-142.3288990825687
 20
109.9186070533897
 30
0.0
 10
-142.3289008710172
 20
109.9147924090266
 30
0.0
 10
-142.3289133378686
 20
109.8882014249781
 30
0.0
 10
-142.3294892418046
 20
109.7913464836772
 30
0.0
 10
-142.3372480593314
 20
109.4576239444684
 30
0.0
 10
-142.4166596901575
 20
108.4607262481736
 30
0.0
 10
-142.7830120646376
 20
106.803406786573
 30
0.0
 10
-143.5585184426569
 20
104.844926148189
 30
0.0
 10
-144.4762045904533
 20
103.0605465787604
 30
0.0
 10
-145.4091250990009
 20
101.7253881165013
 30
0.0
 10
-146.2708413042967
 20
100.8902779845357
 30
0.0
 10
-146.9005860417207
 20
100.5773919347806
 30
0.0
 10
-147.1994376682368
 20
100.5508008264782
 30
0.0
 10
-147.3288990825688
 20
100.5392816571511
 30
0.0
  0
LINE
  5
89
330
1F
100
AcDbEntity
  8
0
  6
CONTINUOUS
 62
     7
100
AcDbLine
 10
-142.3288990826
 20
171.4820513701
 30
0.0
 11
-142.3288990826
 21
109.9186070534
 31
0.0
  0
LINE
  5
8A
330
1F
100
AcDbEntity
  8
0
  6
CONTINUOUS
 62
     7
100
AcDbLine
 10
-147.3288990826
 20
100.5392816572
 30
0.0
 11
-147.3288990826
 21
171.4820513701
 31
0.0
  0
LINE
  5
8B
330
1F
100
AcDbEntity
  8
0
  6
CONTINUOUS
 62
     7
100
AcDbLine
 10
-147.3288990826
 20
171.4820513701
 30
0.0
 11
-142.3288990826
 21
171.4820513701
 31
0.0
  0
LINE
  5
8C
330
1F
100
AcDbEntity
  8
0
  6
CONTINUOUS
 62
     7
100
AcDbLine
 10
-167.3288990826
 20
86.4820513701
 30
0.0
 11
-167.3288990826
 21
73.9954957287
 31
0.0
  0
LWPOLYLINE
  5
8D
330
1F
100
AcDbEntity
  8
0
  6
CONTINUOUS
 62
     7
100
AcDbPolyline
 90
        9
 70
   128
 43
0.0
 10
-167.3288990826
 20
73.9954957287
 10
-168.3043506926
 20
74.0254864369
 10
-169.2423162444
 20
74.1143060353
 10
-170.1067502477
 20
74.2585412366
 10
-170.8644329885
 20
74.4526491629
 10
-171.4862471441
 20
74.6891703555
 10
-171.9482967451
 20
74.9590154375
 10
-172.2328254846
 20
75.2518144138
 10
-172.3288990826
 20
75.5563151839
  0
LINE
  5
8E
330
1F
100
AcDbEntity
  8
0
  6
CONTINUOUS
 62
     7
100
AcDbLine
 10
-172.3288990826
 20
75.5563151839
 30
0.0
 11
-172.3288990826
 21
86.4820513701
 31
0.0
  0
LINE
  5
8F
330
1F
100
AcDbEntity
  8
0
  6
CONTINUOUS
 62
     7
100
AcDbLine
 10
-167.3288990826
 20
86.4820513701
 30
0.0
 11
-172.3288990826
 21
86.4820513701
 31
0.0
  0
LINE
  5
90
330
1F
100
AcDbEntity
  8
0
  6
CONTINUOUS
 62
     7
100
AcDbLine
 10
-167.3288990826
 20
171.4820513701
 30
0.0
 11
-167.3288990826
 21
86.4820513701
 31
0.0
  0
LINE
  5
91
330
1F
100
AcDbEntity
  8
0
  6
CONTINUOUS
 62
     7
100
AcDbLine
 10
-172.3288990826
 20
86.4820513701
 30
0.0
 11
-172.3288990826
 21
171.4820513701
 31
0.0
  0
LINE
  5
92
330
1F
100
AcDbEntity
  8
0
  6
CONTINUOUS
 62
     7
100
AcDbLine
 10
-172.3288990826
 20
171.4820513701
 30
0.0
 11
-167.3288990826
 21
171.4820513701
 31
0.0
  0
LINE
  5
93
330
1F
100
AcDbEntity
  8
0
  6
CONTINUOUS
 62
     7
100
AcDbLine
 10
-152.3288990826
 20
86.4820513701
 30
0.0
 11
-153.8288990826
 21
86.4820513701
 31
0.0
  0
LINE
  5
94
330
1F
100
AcDbEntity
  8
0
  6
CONTINUOUS
 62
     7
100
AcDbLine
 10
-153.8288990826
 20
86.4820513701
 30
0.0
 11
-153.8288990826
 21
100.5392816572
 31
0.0
  0
LINE
  5
95
330
1F
100
AcDbEntity
  8
0
  6
CONTINUOUS
 62
     7
100
AcDbLine
 10
-152.3288990826
 20
99.1250680948
 30
0.0
 11
-152.3288990826
 21
97.3333185772
 31
0.0
  0
LWPOLYLINE
  5
96
330
1F
100
AcDbEntity
  8
0
  6
CONTINUOUS
 62
     7
100
AcDbPolyline
 90
        9
 70
   128
 43
0.0
 10
-152.3288990826
 20
74.4637415653
 10
-152.357721162
 20
74.3723913342
 10
-152.4430797838
 20
74.2845516414
 10
-152.5816946641
 20
74.2035981168
 10
-152.7682389108
 20
74.132641759
 10
-152.995543733
 20
74.0744093811
 10
-153.254873934
 20
74.0311388207
 10
-153.5362635995
 20
74.0044929412
 10
-153.8288990826
 20
73.9954957287
  0
LINE
  5
97
330
1F
100
AcDbEntity
  8
0
  6
CONTINUOUS
 62
     7
100
AcDbLine
 10
-153.8288990826
 20
73.9954957287
 30
0.0
 11
-153.8288990826
 21
86.4820513701
 31
0.0
  0
LINE
  5
98
330
1F
100
AcDbEntity
  8
0
  6
CONTINUOUS
 62
     7
100
AcDbLine
 10
-153.8288990826
 20
100.5392816572
 30
0.0
 11
-147.3288990826
 21
100.5392816572
 31
0.0
  0
LINE
  5
99
330
1F
100
AcDbEntity
  8
0
  6
CONTINUOUS
 62
     7
100
AcDbLine
 10
-147.3288990826
 20
171.4820513701
 30
0.0
 11
-167.3288990826
 21
171.4820513701
 31
0.0
  0
LINE
  5
9A
330
1F
100
AcDbEntity
  8
0
  6
CONTINUOUS
 62
     7
100
AcDbLine
 10
-153.8288990826
 20
86.4820513701
 30
0.0
 11
-167.3288990826
 21
86.4820513701
 31
0.0
  0
LINE
  5
9B
330
1F
100
AcDbEntity
  8
0
  6
CONTINUOUS
 62
     7
100
AcDbLine
 10
-153.8288990826
 20
73.9954957287
 30
0.0
 11
-167.3288990826
 21
73.9954957287
 31
0.0
  0
LINE
  5
9C
330
1F
100
AcDbEntity
  8
0
  6
CONTINUOUS
 62
     7
100
AcDbLine
 10
-172.3288990826
 20
72.1171346391
 30
0.0
 11
-172.3288990826
 21
75.5563151839
 31
0.0
  0
LINE
  5
9D
330
1F
100
AcDbEntity
  8
0
  6
CONTINUOUS
 62
     7
100
AcDbLine
 10
-142.3288990826
 20
109.9186070534
 30
0.0
 11
-142.3288990826
 21
105.8469681011
 31
0.0
  0
LINE
  5
9E
330
1F
100
AcDbEntity
  8
0
  6
CONTINUOUS
 62
     7
100
AcDbLine
 10
439.1711009174
 20
86.4820513701
 30
0.0
 11
439.1711009174
 21
73.9954957287
 31
0.0
  0
LWPOLYLINE
  5
9F
330
1F
100
AcDbEntity
  8
0
  6
CONTINUOUS
 62
     7
100
AcDbPolyline
 90
        9
 70
   128
 43
0.0
 10
439.1711009174
 20
73.9954957287
 10
438.8784654344
 20
74.0044929412
 10
438.5970757689
 20
74.0311388207
 10
438.3377455679
 20
74.0744093811
 10
438.1104407457
 20
74.132641759
 10
437.923896499
 20
74.2035981168
 10
437.7852816187
 20
74.2845516414
 10
437.6999229968
 20
74.3723913342
 10
437.6711009174
 20
74.4637415653
  0
LINE
  5
A0
330
1F
100
AcDbEntity
  8
0
  6
CONTINUOUS
 62
     7
100
AcDbLine
 10
439.1711009174
 20
86.4820513701
 30
0.0
 11
437.6711009174
 21
86.4820513701
 31
0.0
  0
LINE
  5
A1
330
1F
100
AcDbEntity
  8
0
  6
CONTINUOUS
 62
     7
100
AcDbLine
 10
457.6711009174
 20
86.4820513701
 30
0.0
 11
457.6711009174
 21
75.5563151839
 31
0.0
  0
LWPOLYLINE
  5
A2
330
1F
100
AcDbEntity
  8
0
  6
CONTINUOUS
 62
     7
100
AcDbPolyline
 90
        9
 70
   128
 43
0.0
 10
457.6711009174
 20
75.5563151839
 10
457.5750273194
 20
75.2518144138
 10
457.29049858
 20
74.9590154375
 10
456.8284489789
 20
74.6891703555
 10
456.2066348234
 20
74.4526491629
 10
455.4489520825
 20
74.2585412366
 10
454.5845180793
 20
74.1143060353
 10
453.6465525275
 20
74.0254864369
 10
452.6711009174
 20
73.9954957287
  0
LINE
  5
A3
330
1F
100
AcDbEntity
  8
0
  6
CONTINUOUS
 62
     7
100
AcDbLine
 10
452.6711009174
 20
73.9954957287
 30
0.0
 11
452.6711009174
 21
86.4820513701
 31
0.0
  0
LINE
  5
A4
330
1F
100
AcDbEntity
  8
0
  6
CONTINUOUS
 62
     7
100
AcDbLine
 10
457.6711009174
 20
86.4820513701
 30
0.0
 11
452.6711009174
 21
86.4820513701
 31
0.0
  0
LINE
  5
A5
330
1F
100
AcDbEntity
  8
0
  6
CONTINUOUS
 62
     7
100
AcDbLine
 10
437.6711009174
 20
97.3333185772
 30
0.0
 11
437.6711009174
 21
99.1250680948
 31
0.0
  0
SPLINE
  5
A6
330
1F
100
AcDbEntity
  8
0
  6
CONTINUOUS
 62
     7
100
AcDbSpline
210
0.0
220
0.0
230
1.0
 70
     8
 71
     3
 72
    15
 73
    11
 74
     0
 42
0.00000001
 43
0.00000001
 40
0.0
 40
0.0
 40
0.0
 40
0.0
 40
0.0026502483534017
 40
0.2084247581731441
 40
0.480741321739124
 40
0.6681379093820323
 40
0.78276546697078
 40
0.8904354614341496
 40
0.9106248309701861
 40
1.0
 40
1.0
 40
1.0
 40
1.0
 10
439.1711009174313
 20
100.5392816571511
 30
0.0
 10
439.1694062646038
 20
100.5373248386863
 30
0.0
 10
439.036132865791
 20
100.3834338213394
 30
0.0
 10
438.7284279160914
 20
100.0282491816144
 30
0.0
 10
438.3111107108529
 20
99.55634553354079
 30
0.0
 10
437.9830923122774
 20
99.21603251359478
 30
0.0
 10
437.7931741396445
 20
99.0572911209457
 30
0.0
 10
437.7184922884351
 20
99.03210889242948
 30
0.0
 10
437.6788597125347
 20
99.05499928669842
 30
0.0
 10
437.6745866148428
 20
99.09358915253208
 30
0.0
 10
437.6711009174312
 20
99.12506809477804
 30
0.0
  0
LINE
  5
A7
330
1F
100
AcDbEntity
  8
0
  6
CONTINUOUS
 62
     7
100
AcDbLine
 10
439.1711009174
 20
100.5392816572
 30
0.0
 11
439.1711009174
 21
86.4820513701
 31
0.0
  0
SPLINE
  5
A8
330
1F
100
AcDbEntity
  8
0
  6
CONTINUOUS
 62
     7
100
AcDbSpline
210
0.0
220
0.0
230
1.0
 70
     8
 71
     3
 72
    18
 73
    14
 74
     0
 42
0.00000001
 43
0.00000001
 40
0.0
 40
0.0
 40
0.0
 40
0.0
 40
0.0311882312639464
 40
0.0719956111208022
 40
0.1674657170270467
 40
0.321709167587834
 40
0.4806031154199996
 40
0.6853613864582307
 40
0.8961138229902769
 40
0.9700793780712136
 40
0.9917757544588593
 40
0.9988201801092834
 40
1.0
 40
1.0
 40
1.0
 40
1.0
 10
432.6711009174312
 20
100.5392816571511
 30
0.0
 10
432.5416328672175
 20
100.550796364063
 30
0.0
 10
432.2427659222832
 20
100.5773771712265
 30
0.0
 10
431.6132323108733
 20
100.8904051963726
 30
0.0
 10
430.755122404253
 20
101.7179280703948
 30
0.0
 10
429.8368396122182
 20
103.0625637049421
 30
0.0
 10
428.9031262033399
 20
104.8242958656816
 30
0.0
 10
428.1324192526527
 20
106.7953655694518
 30
0.0
 10
427.7593209451442
 20
108.4503804021764
 30
0.0
 10
427.6794636089456
 20
109.4576332400199
 30
0.0
 10
427.6716905367279
 20
109.7913461177194
 30
0.0
 10
427.6711151813903
 20
109.8882014308463
 30
0.0
 10
427.6711027069661
 20
109.9147924097629
 30
0.0
 10
427.6711009174312
 20
109.9186070533897
 30
0.0
  0
LINE
  5
A9
330
1F
100
AcDbEntity
  8
0
  6
CONTINUOUS
 62
     7
100
AcDbLine
 10
432.6711009174
 20
171.4820513701
 30
0.0
 11
432.6711009174
 21
100.5392816572
 31
0.0
  0
LINE
  5
AA
330
1F
100
AcDbEntity
  8
0
  6
CONTINUOUS
 62
     7
100
AcDbLine
 10
427.6711009174
 20
109.9186070534
 30
0.0
 11
427.6711009174
 21
171.4820513701
 31
0.0
  0
LINE
  5
AB
330
1F
100
AcDbEntity
  8
0
  6
CONTINUOUS
 62
     7
100
AcDbLine
 10
427.6711009174
 20
171.4820513701
 30
0.0
 11
432.6711009174
 21
171.4820513701
 31
0.0
  0
LINE
  5
AC
330
1F
100
AcDbEntity
  8
0
  6
CONTINUOUS
 62
     7
100
AcDbLine
 10
452.6711009174
 20
73.9954957287
 30
0.0
 11
439.1711009174
 21
73.9954957287
 31
0.0
  0
LINE
  5
AD
330
1F
100
AcDbEntity
  8
0
  6
CONTINUOUS
 62
     7
100
AcDbLine
 10
452.6711009174
 20
86.4820513701
 30
0.0
 11
439.1711009174
 21
86.4820513701
 31
0.0
  0
LINE
  5
AE
330
1F
100
AcDbEntity
  8
0
  6
CONTINUOUS
 62
     7
100
AcDbLine
 10
457.6711009174
 20
171.4820513701
 30
0.0
 11
457.6711009174
 21
86.4820513701
 31
0.0
  0
LINE
  5
AF
330
1F
100
AcDbEntity
  8
0
  6
CONTINUOUS
 62
     7
100
AcDbLine
 10
452.6711009174
 20
86.4820513701
 30
0.0
 11
452.6711009174
 21
171.4820513701
 31
0.0
  0
LINE
  5
B0
330
1F
100
AcDbEntity
  8
0
  6
CONTINUOUS
 62
     7
100
AcDbLine
 10
452.6711009174
 20
171.4820513701
 30
0.0
 11
457.6711009174
 21
171.4820513701
 31
0.0
  0
LINE
  5
B1
330
1F
100
AcDbEntity
  8
0
  6
CONTINUOUS
 62
     7
100
AcDbLine
 10
432.6711009174
 20
100.5392816572
 30
0.0
 11
439.1711009174
 21
100.5392816572
 31
0.0
  0
LINE
  5
B2
330
1F
100
AcDbEntity
  8
0
  6
CONTINUOUS
 62
     7
100
AcDbLine
 10
452.6711009174
 20
171.4820513701
 30
0.0
 11
432.6711009174
 21
171.4820513701
 31
0.0
  0
LINE
  5
B3
330
1F
100
AcDbEntity
  8
0
  6
CONTINUOUS
 62
     7
100
AcDbLine
 10
457.6711009174
 20
75.5563151839
 30
0.0
 11
457.6711009174
 21
72.1171346391
 31
0.0
  0
LINE
  5
B4
330
1F
100
AcDbEntity
  8
0
  6
CONTINUOUS
 62
     7
100
AcDbLine
 10
427.6711009174
 20
105.8469681011
 30
0.0
 11
427.6711009174
 21
109.9186070534
 31
0.0
  0
SPLINE
  5
B5
330
1F
100
AcDbEntity
  8
0
  6
CONTINUOUS
 62
     8
100
AcDbSpline
210
0.0
220
0.0
230
1.0
 70
     8
 71
     3
 72
    13
 73
     9
 74
     0
 42
0.00000001
 43
0.00000001
 40
0.0
 40
0.0
 40
0.0
 40
0.0
 40
0.0035564900214345
 40
0.24375873972145
 40
0.561720832614779
 40
0.7785622044370767
 40
0.9083243491352924
 40
1.0
 40
1.0
 40
1.0
 40
1.0
 10
-153.8288990825688
 20
100.5392816571511
 30
0.0
 10
-153.826306153396
 20
100.5377846231913
 30
0.0
 10
-153.6485890380581
 20
100.4351792147179
 30
0.0
 10
-153.2391405064922
 20
100.1989957464448
 30
0.0
 10
-152.6829830014246
 20
99.88387295483686
 30
0.0
 10
-152.2512960723531
 20
99.66155911851519
 30
0.0
 10
-152.0034890453364
 20
99.55318669737228
 30
0.0
 10
-151.9297417653806
 20
99.54763939729405
 30
0.0
 10
-151.8992102570973
 20
99.54534280495342
 30
0.0
  0
LINE
  5
B6
330
1F
100
AcDbEntity
  8
0
  6
CONTINUOUS
 62
     8
100
AcDbLine
 10
-147.3288990826
 20
99.5392987431
 30
0.0
 11
-147.3288990826
 21
100.5392816572
 31
0.0
  0
LINE
  5
B7
330
1F
100
AcDbEntity
  8
0
  6
CONTINUOUS
 62
     8
100
AcDbLine
 10
-153.8288990826
 20
67.1171346391
 30
0.0
 11
-153.8288990826
 21
73.9954957287
 31
0.0
  0
LINE
  5
B8
330
1F
100
AcDbEntity
  8
0
  6
CONTINUOUS
 62
     8
100
AcDbLine
 10
-167.3288990826
 20
73.9954957287
 30
0.0
 11
-167.3288990826
 21
67.1171346391
 31
0.0
  0
LINE
  5
B9
330
1F
100
AcDbEntity
  8
0
  6
CONTINUOUS
 62
     8
100
AcDbLine
 10
432.6711009174
 20
100.5392816572
 30
0.0
 11
432.6711009174
 21
99.5392823985
 31
0.0
  0
SPLINE
  5
BA
330
1F
100
AcDbEntity
  8
0
  6
CONTINUOUS
 62
     8
100
AcDbSpline
210
0.0
220
0.0
230
1.0
 70
     8
 71
     3
 72
    13
 73
     9
 74
     0
 42
0.00000001
 43
0.00000001
 40
0.0
 40
0.0
 40
0.0
 40
0.0
 40
0.0909124056229197
 40
0.2207835866357324
 40
0.4378071655577914
 40
0.7560364350986469
 40
0.9964405215371962
 40
1.0
 40
1.0
 40
1.0
 40
1.0
 10
437.2423316903363
 20
99.54548314120788
 30
0.0
 10
437.272598589169
 20
99.54777304619763
 30
0.0
 10
437.3461026883602
 20
99.55333415123307
 30
0.0
 10
437.5935315034814
 20
99.66159124671167
 30
0.0
 10
438.025168194315
 20
99.88385704007419
 30
0.0
 10
438.5813464256291
 20
100.1989996522547
 30
0.0
 10
438.9907908641169
 20
100.4351792062865
 30
0.0
 10
439.1685079881319
 20
100.53778462307
 30
0.0
 10
439.1711009174313
 20
100.5392816571511
 30
0.0
  0
LINE
  5
BB
330
1F
100
AcDbEntity
  8
0
  6
CONTINUOUS
 62
     8
100
AcDbLine
 10
452.6711009174
 20
67.1171346391
 30
0.0
 11
452.6711009174
 21
73.9954957287
 31
0.0
  0
LINE
  5
BC
330
1F
100
AcDbEntity
  8
0
  6
CONTINUOUS
 62
     8
100
AcDbLine
 10
439.1711009174
 20
73.9954957287
 30
0.0
 11
439.1711009174
 21
67.1171346391
 31
0.0
  0
LINE
  5
BD
330
1F
100
AcDbEntity
  8
0
  6
CONTINUOUS
 62
     7
100
AcDbLine
 10
437.6711009174
 20
-6.7973148038
 30
0.0
 11
-152.3288990826
 21
-6.7973148038
 31
0.0
  0
LINE
  5
BE
330
1F
100
AcDbEntity
  8
0
  6
CONTINUOUS
 62
     7
100
AcDbLine
 10
-152.3288990826
 20
-44.5169784274
 30
0.0
 11
437.6711009174
 21
-44.5169784274
 31
0.0
  0
LINE
  5
BF
330
1F
100
AcDbEntity
  8
0
  6
CONTINUOUS
 62
     7
100
AcDbLine
 10
437.6711009174
 20
-20.34318957
 30
0.0
 11
-152.3288990826
 21
-20.34318957
 31
0.0
  0
LINE
  5
C0
330
1F
100
AcDbEntity
  8
0
  6
CONTINUOUS
 62
     7
100
AcDbLine
 10
-152.3288990826
 20
-8.7961841862
 30
0.0
 11
437.6711009174
 21
-8.7961841862
 31
0.0
  0
LINE
  5
C1
330
1F
100
AcDbEntity
  8
0
  6
CONTINUOUS
 62
     7
100
AcDbLine
 10
437.6711009174
 20
-8.7961841862
 30
0.0
 11
437.6711009174
 21
-20.34318957
 31
0.0
  0
LINE
  5
C2
330
1F
100
AcDbEntity
  8
0
  6
CONTINUOUS
 62
     7
100
AcDbLine
 10
-152.3288990826
 20
-20.34318957
 30
0.0
 11
-152.3288990826
 21
-8.7961841862
 31
0.0
  0
LINE
  5
C3
330
1F
100
AcDbEntity
  8
0
  6
CONTINUOUS
 62
     7
100
AcDbLine
 10
-152.3288990826
 20
-41.9705383524
 30
0.0
 11
437.6711009174
 21
-41.9705383524
 31
0.0
  0
LINE
  5
C4
330
1F
100
AcDbEntity
  8
0
  6
CONTINUOUS
 62
     7
100
AcDbLine
 10
437.6711009174
 20
-20.34318957
 30
0.0
 11
437.6711009174
 21
-41.9705383524
 31
0.0
  0
LINE
  5
C5
330
1F
100
AcDbEntity
  8
0
  6
CONTINUOUS
 62
     7
100
AcDbLine
 10
-152.3288990826
 20
-20.34318957
 30
0.0
 11
-152.3288990826
 21
-41.9705383524
 31
0.0
  0
LINE
  5
C6
330
1F
100
AcDbEntity
  8
0
  6
CONTINUOUS
 62
     7
100
AcDbLine
 10
437.6711009174
 20
-6.7973148038
 30
0.0
 11
437.6711009174
 21
-8.7961841862
 31
0.0
  0
LINE
  5
C7
330
1F
100
AcDbEntity
  8
0
  6
CONTINUOUS
 62
     7
100
AcDbLine
 10
-152.3288990826
 20
-6.7973148038
 30
0.0
 11
-152.3288990826
 21
-8.7961841862
 31
0.0
  0
LINE
  5
C8
330
1F
100
AcDbEntity
  8
0
  6
CONTINUOUS
 62
     7
100
AcDbLine
 10
437.6711009174
 20
-41.9705383524
 30
0.0
 11
437.6711009174
 21
-44.5169784274
 31
0.0
  0
LINE
  5
C9
330
1F
100
AcDbEntity
  8
0
  6
CONTINUOUS
 62
     7
100
AcDbLine
 10
-152.3288990826
 20
-44.5169784274
 30
0.0
 11
-152.3288990826
 21
-41.9705383524
 31
0.0
  0
LINE
  5
CA
330
1F
100
AcDbEntity
  8
0
  6
CONTINUOUS
 62
     7
100
AcDbLine
 10
-167.3288990826
 20
-8.7961841862
 30
0.0
 11
-167.3288990826
 21
-20.34318957
 31
0.0
  0
LWPOLYLINE
  5
CB
330
1F
100
AcDbEntity
  8
0
  6
CONTINUOUS
 62
     7
100
AcDbPolyline
 90
        9
 70
   128
 43
0.0
 10
-167.3288990826
 20
-20.34318957
 10
-168.3043506926
 20
-20.3235259684
 10
-169.2423162444
 20
-20.2652908245
 10
-170.1067502477
 20
-20.1707220825
 10
-170.8644329885
 20
-20.0434539659
 10
-171.4862471441
 20
-19.8883773172
 10
-171.9482967451
 20
-19.7114516449
 10
-172.2328254846
 20
-19.5194761035
 10
-172.3288990826
 20
-19.3198282053
  0
LINE
  5
CC
330
1F
100
AcDbEntity
  8
0
  6
CONTINUOUS
 62
     7
100
AcDbLine
 10
-172.3288990826
 20
-19.3198282053
 30
0.0
 11
-172.3288990826
 21
-13.5463255134
 31
0.0
  0
ARC
  5
CD
330
1F
100
AcDbEntity
  8
0
  6
CONTINUOUS
 62
     7
100
AcDbCircle
 10
-167.4507069512
 20
-13.6745405077
 30
0.0
 40
4.879876797192043
100
AcDbArc
 50
88.5696766516
 51
178.4944243822
  0
ARC
  5
CE
330
1F
100
AcDbEntity
  8
0
  6
CONTINUOUS
 62
     7
100
AcDbCircle
 10
-153.4696081098
 20
-18.2807358939
 30
0.0
 40
2.093515027231177
100
AcDbArc
 50
260.1179239082
 51
303.0162860521
  0
LINE
  5
CF
330
1F
100
AcDbEntity
  8
0
  6
CONTINUOUS
 62
     7
100
AcDbLine
 10
-153.8288990826
 20
-20.34318957
 30
0.0
 11
-153.8288990826
 21
-8.7961841862
 31
0.0
  0
ARC
  5
D0
330
1F
100
AcDbEntity
  8
0
  6
CONTINUOUS
 62
     7
100
AcDbCircle
 10
-153.792356722
 20
-10.2596910827
 30
0.0
 40
1.46396303915754
100
AcDbArc
 50
1.5055756178
 51
91.4303233484
  0
LINE
  5
D1
330
1F
100
AcDbEntity
  8
0
  6
CONTINUOUS
 62
     7
100
AcDbLine
 10
-153.8288990826
 20
-8.7961841862
 30
0.0
 11
-167.3288990826
 21
-8.7961841862
 31
0.0
  0
LINE
  5
D2
330
1F
100
AcDbEntity
  8
0
  6
CONTINUOUS
 62
     7
100
AcDbLine
 10
-153.8288990826
 20
-20.34318957
 30
0.0
 11
-167.3288990826
 21
-20.34318957
 31
0.0
  0
LINE
  5
D3
330
1F
100
AcDbEntity
  8
0
  6
CONTINUOUS
 62
     7
100
AcDbLine
 10
-167.3288990826
 20
-20.34318957
 30
0.0
 11
-167.3288990826
 21
-41.9705383524
 31
0.0
  0
LINE
  5
D4
330
1F
100
AcDbEntity
  8
0
  6
CONTINUOUS
 62
     7
100
AcDbLine
 10
-153.8288990826
 20
-41.9705383524
 30
0.0
 11
-153.8288990826
 21
-20.34318957
 31
0.0
  0
LINE
  5
D5
330
1F
100
AcDbEntity
  8
0
  6
CONTINUOUS
 62
     7
100
AcDbLine
 10
-153.8288990826
 20
-41.9705383524
 30
0.0
 11
-167.3288990826
 21
-41.9705383524
 31
0.0
  0
ARC
  5
D6
330
1F
100
AcDbEntity
  8
0
  6
CONTINUOUS
 62
     7
100
AcDbCircle
 10
-153.6622324159
 20
-40.6288975659
 30
0.0
 40
1.351953319378158
100
AcDbArc
 50
262.918652546
 51
350.479797855
  0
LWPOLYLINE
  5
D7
330
1F
100
AcDbEntity
  8
0
  6
CONTINUOUS
 62
     7
100
AcDbPolyline
 90
        9
 70
   128
 43
0.0
 10
-167.3288990826
 20
-41.9705383524
 10
-168.3043506926
 20
-41.8989293205
 10
-169.2423162444
 20
-41.6868541195
 10
-170.1067502477
 20
-41.3424626805
 10
-170.8644329885
 20
-40.8789897734
 10
-171.4862471441
 20
-40.3142464021
 10
-171.9482967451
 20
-39.6699353377
 10
-172.2328254846
 20
-38.9708170929
 10
-172.3288990826
 20
-38.2437583899
  0
LINE
  5
D8
330
1F
100
AcDbEntity
  8
0
  6
CONTINUOUS
 62
     7
100
AcDbLine
 10
-172.3288990826
 20
-38.2437583899
 30
0.0
 11
-172.3288990826
 21
-19.3198282053
 31
0.0
  0
LINE
  5
D9
330
1F
100
AcDbEntity
  8
0
  6
CONTINUOUS
 62
     7
100
AcDbLine
 10
-167.3288990826
 20
-6.7973148038
 30
0.0
 11
-167.3288990826
 21
-8.7961841862
 31
0.0
  0
LINE
  5
DA
330
1F
100
AcDbEntity
  8
0
  6
CONTINUOUS
 62
     7
100
AcDbLine
 10
-153.8288990826
 20
-6.7973148038
 30
0.0
 11
-167.3288990826
 21
-6.7973148038
 31
0.0
  0
LINE
  5
DB
330
1F
100
AcDbEntity
  8
0
  6
CONTINUOUS
 62
     7
100
AcDbLine
 10
-153.8288990826
 20
-8.7961841862
 30
0.0
 11
-153.8288990826
 21
-6.7973148038
 31
0.0
  0
ARC
  5
DC
330
1F
100
AcDbEntity
  8
0
  6
CONTINUOUS
 62
     7
100
AcDbCircle
 10
-153.8288990826
 20
-8.2973148038
 30
0.0
 40
1.500000000000057
100
AcDbArc
 50
0.0
 51
90.0
  0
ARC
  5
DD
330
1F
100
AcDbEntity
  8
0
  6
CONTINUOUS
 62
     7
100
AcDbCircle
 10
-167.3288990826
 20
-11.7973148038
 30
0.0
 40
5.0
100
AcDbArc
 50
90.0
 51
180.0
  0
LINE
  5
DE
330
1F
100
AcDbEntity
  8
0
  6
CONTINUOUS
 62
     7
100
AcDbLine
 10
-172.3288990826
 20
-13.5463255134
 30
0.0
 11
-172.3288990826
 21
-11.7973148038
 31
0.0
  0
LINE
  5
DF
330
1F
100
AcDbEntity
  8
0
  6
CONTINUOUS
 62
     7
100
AcDbLine
 10
-167.3288990826
 20
-41.9705383524
 30
0.0
 11
-167.3288990826
 21
-44.5169784274
 31
0.0
  0
LINE
  5
E0
330
1F
100
AcDbEntity
  8
0
  6
CONTINUOUS
 62
     7
100
AcDbLine
 10
-153.8288990826
 20
-44.5169784274
 30
0.0
 11
-153.8288990826
 21
-41.9705383524
 31
0.0
  0
LINE
  5
E1
330
1F
100
AcDbEntity
  8
0
  6
CONTINUOUS
 62
     7
100
AcDbLine
 10
-153.8288990826
 20
-44.5169784274
 30
0.0
 11
-167.3288990826
 21
-44.5169784274
 31
0.0
  0
ARC
  5
E2
330
1F
100
AcDbEntity
  8
0
  6
CONTINUOUS
 62
     7
100
AcDbCircle
 10
-153.8288990826
 20
-43.0169784274
 30
0.0
 40
1.500000000000057
100
AcDbArc
 50
270.0
 51
0.0
  0
ARC
  5
E3
330
1F
100
AcDbEntity
  8
0
  6
CONTINUOUS
 62
     7
100
AcDbCircle
 10
-167.3288990826
 20
-39.5169784274
 30
0.0
 40
5.0
100
AcDbArc
 50
180.0
 51
270.0
  0
LINE
  5
E4
330
1F
100
AcDbEntity
  8
0
  6
CONTINUOUS
 62
     7
100
AcDbLine
 10
-172.3288990826
 20
-39.5169784274
 30
0.0
 11
-172.3288990826
 21
-38.2437583899
 31
0.0
  0
LINE
  5
E5
330
1F
100
AcDbEntity
  8
0
  6
CONTINUOUS
 62
     7
100
AcDbLine
 10
-147.3288990826
 20
-44.5169784274
 30
0.0
 11
-153.8288990826
 21
-44.5169784274
 31
0.0
  0
LINE
  5
E6
330
1F
100
AcDbEntity
  8
0
  6
CONTINUOUS
 62
     7
100
AcDbLine
 10
-153.8288990826
 20
-6.7973148038
 30
0.0
 11
-147.3288990826
 21
-6.7973148038
 31
0.0
  0
LINE
  5
E7
330
1F
100
AcDbEntity
  8
0
  6
CONTINUOUS
 62
     7
100
AcDbLine
 10
439.1711009174
 20
-8.7961841862
 30
0.0
 11
439.1711009174
 21
-20.34318957
 31
0.0
  0
ARC
  5
E8
330
1F
100
AcDbEntity
  8
0
  6
CONTINUOUS
 62
     7
100
AcDbCircle
 10
438.8118099447
 20
-18.2807358939
 30
0.0
 40
2.093515027231271
100
AcDbArc
 50
236.9837139479
 51
279.8820760918
  0
ARC
  5
E9
330
1F
100
AcDbEntity
  8
0
  6
CONTINUOUS
 62
     7
100
AcDbCircle
 10
439.1345585569
 20
-10.2596910827
 30
0.0
 40
1.463963039157612
100
AcDbArc
 50
88.5696766516
 51
178.4944243822
  0
LINE
  5
EA
330
1F
100
AcDbEntity
  8
0
  6
CONTINUOUS
 62
     7
100
AcDbLine
 10
457.6711009174
 20
-13.5463255134
 30
0.0
 11
457.6711009174
 21
-19.3198282053
 31
0.0
  0
LWPOLYLINE
  5
EB
330
1F
100
AcDbEntity
  8
0
  6
CONTINUOUS
 62
     7
100
AcDbPolyline
 90
        9
 70
   128
 43
0.0
 10
457.6711009174
 20
-19.3198282053
 10
457.5750273194
 20
-19.5194761035
 10
457.29049858
 20
-19.7114516449
 10
456.8284489789
 20
-19.8883773172
 10
456.2066348234
 20
-20.0434539659
 10
455.4489520825
 20
-20.1707220825
 10
454.5845180793
 20
-20.2652908245
 10
453.6465525275
 20
-20.3235259684
 10
452.6711009174
 20
-20.34318957
  0
LINE
  5
EC
330
1F
100
AcDbEntity
  8
0
  6
CONTINUOUS
 62
     7
100
AcDbLine
 10
452.6711009174
 20
-20.34318957
 30
0.0
 11
452.6711009174
 21
-8.7961841862
 31
0.0
  0
ARC
  5
ED
330
1F
100
AcDbEntity
  8
0
  6
CONTINUOUS
 62
     7
100
AcDbCircle
 10
452.792908786
 20
-13.6745405077
 30
0.0
 40
4.879876797192133
100
AcDbArc
 50
1.5055756178
 51
91.4303233484
  0
LINE
  5
EE
330
1F
100
AcDbEntity
  8
0
  6
CONTINUOUS
 62
     7
100
AcDbLine
 10
452.6711009174
 20
-20.34318957
 30
0.0
 11
439.1711009174
 21
-20.34318957
 31
0.0
  0
LINE
  5
EF
330
1F
100
AcDbEntity
  8
0
  6
CONTINUOUS
 62
     7
100
AcDbLine
 10
452.6711009174
 20
-8.7961841862
 30
0.0
 11
439.1711009174
 21
-8.7961841862
 31
0.0
  0
LINE
  5
F0
330
1F
100
AcDbEntity
  8
0
  6
CONTINUOUS
 62
     7
100
AcDbLine
 10
439.1711009174
 20
-20.34318957
 30
0.0
 11
439.1711009174
 21
-41.9705383524
 31
0.0
  0
ARC
  5
F1
330
1F
100
AcDbEntity
  8
0
  6
CONTINUOUS
 62
     7
100
AcDbCircle
 10
439.0044342508
 20
-40.6288975659
 30
0.0
 40
1.351953319378252
100
AcDbArc
 50
189.520202145
 51
277.081347454
  0
LINE
  5
F2
330
1F
100
AcDbEntity
  8
0
  6
CONTINUOUS
 62
     7
100
AcDbLine
 10
457.6711009174
 20
-19.3198282053
 30
0.0
 11
457.6711009174
 21
-38.2437583899
 31
0.0
  0
LWPOLYLINE
  5
F3
330
1F
100
AcDbEntity
  8
0
  6
CONTINUOUS
 62
     7
100
AcDbPolyline
 90
        9
 70
   128
 43
0.0
 10
457.6711009174
 20
-38.2437583899
 10
457.5750273194
 20
-38.9708170929
 10
457.29049858
 20
-39.6699353377
 10
456.8284489789
 20
-40.3142464021
 10
456.2066348234
 20
-40.8789897734
 10
455.4489520825
 20
-41.3424626805
 10
454.5845180793
 20
-41.6868541195
 10
453.6465525275
 20
-41.8989293205
 10
452.6711009174
 20
-41.9705383524
  0
LINE
  5
F4
330
1F
100
AcDbEntity
  8
0
  6
CONTINUOUS
 62
     7
100
AcDbLine
 10
452.6711009174
 20
-41.9705383524
 30
0.0
 11
452.6711009174
 21
-20.34318957
 31
0.0
  0
LINE
  5
F5
330
1F
100
AcDbEntity
  8
0
  6
CONTINUOUS
 62
     7
100
AcDbLine
 10
452.6711009174
 20
-41.9705383524
 30
0.0
 11
439.1711009174
 21
-41.9705383524
 31
0.0
  0
LINE
  5
F6
330
1F
100
AcDbEntity
  8
0
  6
CONTINUOUS
 62
     7
100
AcDbLine
 10
452.6711009174
 20
-8.7961841862
 30
0.0
 11
452.6711009174
 21
-6.7973148038
 31
0.0
  0
ARC
  5
F7
330
1F
100
AcDbEntity
  8
0
  6
CONTINUOUS
 62
     7
100
AcDbCircle
 10
452.6711009174
 20
-11.7973148038
 30
0.0
 40
4.999999999999998
100
AcDbArc
 50
0.0
 51
90.0
  0
LINE
  5
F8
330
1F
100
AcDbEntity
  8
0
  6
CONTINUOUS
 62
     7
100
AcDbLine
 10
457.6711009174
 20
-11.7973148038
 30
0.0
 11
457.6711009174
 21
-13.5463255134
 31
0.0
  0
LINE
  5
F9
330
1F
100
AcDbEntity
  8
0
  6
CONTINUOUS
 62
     7
100
AcDbLine
 10
439.1711009174
 20
-6.7973148038
 30
0.0
 11
439.1711009174
 21
-8.7961841862
 31
0.0
  0
ARC
  5
FA
330
1F
100
AcDbEntity
  8
0
  6
CONTINUOUS
 62
     7
100
AcDbCircle
 10
439.1711009174
 20
-8.2973148038
 30
0.0
 40
1.5
100
AcDbArc
 50
90.0
 51
180.0
  0
LINE
  5
FB
330
1F
100
AcDbEntity
  8
0
  6
CONTINUOUS
 62
     7
100
AcDbLine
 10
452.6711009174
 20
-6.7973148038
 30
0.0
 11
439.1711009174
 21
-6.7973148038
 31
0.0
  0
ARC
  5
FC
330
1F
100
AcDbEntity
  8
0
  6
CONTINUOUS
 62
     7
100
AcDbCircle
 10
452.6711009174
 20
-39.5169784274
 30
0.0
 40
5.0
100
AcDbArc
 50
270.0
 51
0.0
  0
LINE
  5
FD
330
1F
100
AcDbEntity
  8
0
  6
CONTINUOUS
 62
     7
100
AcDbLine
 10
452.6711009174
 20
-44.5169784274
 30
0.0
 11
452.6711009174
 21
-41.9705383524
 31
0.0
  0
LINE
  5
FE
330
1F
100
AcDbEntity
  8
0
  6
CONTINUOUS
 62
     7
100
AcDbLine
 10
457.6711009174
 20
-38.2437583899
 30
0.0
 11
457.6711009174
 21
-39.5169784274
 31
0.0
  0
LINE
  5
FF
330
1F
100
AcDbEntity
  8
0
  6
CONTINUOUS
 62
     7
100
AcDbLine
 10
439.1711009174
 20
-41.9705383524
 30
0.0
 11
439.1711009174
 21
-44.5169784274
 31
0.0
  0
ARC
  5
100
330
1F
100
AcDbEntity
  8
0
  6
CONTINUOUS
 62
     7
100
AcDbCircle
 10
439.1711009174
 20
-43.0169784274
 30
0.0
 40
1.5
100
AcDbArc
 50
180.0
 51
270.0
  0
LINE
  5
101
330
1F
100
AcDbEntity
  8
0
  6
CONTINUOUS
 62
     7
100
AcDbLine
 10
452.6711009174
 20
-44.5169784274
 30
0.0
 11
439.1711009174
 21
-44.5169784274
 31
0.0
  0
LINE
  5
102
330
1F
100
AcDbEntity
  8
0
  6
CONTINUOUS
 62
     7
100
AcDbLine
 10
439.1711009174
 20
-44.5169784274
 30
0.0
 11
432.6711009174
 21
-44.5169784274
 31
0.0
  0
LINE
  5
103
330
1F
100
AcDbEntity
  8
0
  6
CONTINUOUS
 62
     7
100
AcDbLine
 10
432.6711009174
 20
-6.7973148038
 30
0.0
 11
439.1711009174
 21
-6.7973148038
 31
0.0
  0
SPLINE
  5
104
330
1F
100
AcDbEntity
  8
0
  6
CONTINUOUS
 62
     8
100
AcDbSpline
210
0.0
220
0.0
230
1.0
 70
     8
 71
     3
 72
    11
 73
     7
 74
     0
 42
0.00000001
 43
0.00000001
 40
0.0
 40
0.0
 40
0.0
 40
0.0
 40
0.2141037983633421
 40
0.6589603651139608
 40
0.9950241617602535
 40
0.9999999999999999
 40
0.9999999999999999
 40
0.9999999999999999
 40
0.9999999999999999
 10
-152.3288990825687
 20
-44.04672738308512
 30
0.0
 10
-152.4253929872027
 20
-44.1181809553171
 30
0.0
 10
-152.7223781837054
 20
-44.33809798811434
 30
0.0
 10
-153.2408896124629
 20
-44.47569201531631
 30
0.0
 10
-153.648585266337
 20
-44.51683204121818
 30
0.0
 10
-153.8263060991572
 20
-44.5169763223518
 30
0.0
 10
-153.8288990825687
 20
-44.51697842744314
 30
0.0
  0
SPLINE
  5
105
330
1F
100
AcDbEntity
  8
0
  6
CONTINUOUS
 62
     8
100
AcDbSpline
210
0.0
220
0.0
230
1.0
 70
     8
 71
     3
 72
    11
 73
     7
 74
     0
 42
0.00000001
 43
0.00000001
 40
0.0
 40
0.0
 40
0.0
 40
0.0
 40
0.0049758382397771
 40
0.3410396348860396
 40
0.7858962016366584
 40
1.0
 40
1.0
 40
1.0
 40
1.0
 10
-153.8288990825687
 20
-6.797314803822722
 30
0.0
 10
-153.8263060991571
 20
-6.79731690891406
 30
0.0
 10
-153.648585266336
 20
-6.797461190047638
 30
0.0
 10
-153.2408896124635
 20
-6.838601215949577
 30
0.0
 10
-152.7223781837052
 20
-6.976195243151517
 30
0.0
 10
-152.4253929872027
 20
-7.196112275948755
 30
0.0
 10
-152.3288990825687
 20
-7.267565848180737
 30
0.0
  0
SPLINE
  5
106
330
1F
100
AcDbEntity
  8
0
  6
CONTINUOUS
 62
     8
100
AcDbSpline
210
0.0
220
0.0
230
1.0
 70
     8
 71
     3
 72
    11
 73
     7
 74
     0
 42
0.00000001
 43
0.00000001
 40
0.0
 40
0.0
 40
0.0
 40
0.0
 40
0.0049758382397333
 40
0.3410396348860312
 40
0.7858962016366599
 40
0.9999999999999999
 40
0.9999999999999999
 40
0.9999999999999999
 40
0.9999999999999999
 10
439.1711009174313
 20
-44.51697842744314
 30
0.0
 10
439.1685079340197
 20
-44.51697632235179
 30
0.0
 10
438.990787101201
 20
-44.51683204121812
 30
0.0
 10
438.5830914473246
 20
-44.47569201531635
 30
0.0
 10
438.0645800185681
 20
-44.33809798811431
 30
0.0
 10
437.7675948220653
 20
-44.11818095531712
 30
0.0
 10
437.6711009174313
 20
-44.04672738308516
 30
0.0
  0
SPLINE
  5
107
330
1F
100
AcDbEntity
  8
0
  6
CONTINUOUS
 62
     8
100
AcDbSpline
210
0.0
220
0.0
230
1.0
 70
     8
 71
     3
 72
    11
 73
     7
 74
     0
 42
0.00000001
 43
0.00000001
 40
0.0
 40
0.0
 40
0.0
 40
0.0
 40
0.2141037983633403
 40
0.658960365113972
 40
0.9950241617602607
 40
1.0
 40
1.0
 40
1.0
 40
1.0
 10
437.6711009174313
 20
-7.267565848180696
 30
0.0
 10
437.7675948220654
 20
-7.196112275948726
 30
0.0
 10
438.0645800185683
 20
-6.976195243151538
 30
0.0
 10
438.5830914473223
 20
-6.838601215949522
 30
0.0
 10
438.9907871012047
 20
-6.797461190047711
 30
0.0
 10
439.1685079340198
 20
-6.79731690891406
 30
0.0
 10
439.1711009174313
 20
-6.797314803822722
 30
0.0
  0
LINE
  5
108
330
1F
100
AcDbEntity
  8
0
  6
CONTINUOUS
 62
     7
100
AcDbLine
 10
-260.064577803
 20
-44.5169784274
 30
0.0
 11
-345.064577803
 21
-44.5169784274
 31
0.0
  0
LINE
  5
109
330
1F
100
AcDbEntity
  8
0
  6
CONTINUOUS
 62
     7
100
AcDbLine
 10
-345.064577803
 20
-44.5169784274
 30
0.0
 11
-345.064577803
 21
-39.5169784274
 31
0.0
  0
LINE
  5
10A
330
1F
100
AcDbEntity
  8
0
  6
CONTINUOUS
 62
     7
100
AcDbLine
 10
-345.064577803
 20
-39.5169784274
 30
0.0
 11
-260.064577803
 21
-39.5169784274
 31
0.0
  0
LINE
  5
10B
330
1F
100
AcDbEntity
  8
0
  6
CONTINUOUS
 62
     7
100
AcDbLine
 10
-260.064577803
 20
-44.5169784274
 30
0.0
 11
-260.064577803
 21
-39.5169784274
 31
0.0
  0
LINE
  5
10C
330
1F
100
AcDbEntity
  8
0
  6
CONTINUOUS
 62
     7
100
AcDbLine
 10
-345.064577803
 20
-6.7973148038
 30
0.0
 11
-260.064577803
 21
-6.7973148038
 31
0.0
  0
LINE
  5
10D
330
1F
100
AcDbEntity
  8
0
  6
CONTINUOUS
 62
     7
100
AcDbLine
 10
-260.064577803
 20
-6.7973148038
 30
0.0
 11
-260.064577803
 21
-11.7973148038
 31
0.0
  0
LINE
  5
10E
330
1F
100
AcDbEntity
  8
0
  6
CONTINUOUS
 62
     7
100
AcDbLine
 10
-260.064577803
 20
-11.7973148038
 30
0.0
 11
-345.064577803
 21
-11.7973148038
 31
0.0
  0
LINE
  5
10F
330
1F
100
AcDbEntity
  8
0
  6
CONTINUOUS
 62
     7
100
AcDbLine
 10
-345.064577803
 20
-11.7973148038
 30
0.0
 11
-345.064577803
 21
-6.7973148038
 31
0.0
  0
ARC
  5
110
330
1F
100
AcDbEntity
  8
0
  6
CONTINUOUS
 62
     7
100
AcDbCircle
 10
-260.064577803
 20
-46.7973148038
 30
0.0
 40
35.00000000000016
100
AcDbArc
 50
71.8103148958
 51
90.0
  0
ARC
  5
111
330
1F
100
AcDbEntity
  8
0
  6
CONTINUOUS
 62
     7
100
AcDbCircle
 10
-250.6996610719
 20
-18.2964668406
 30
0.0
 40
5.00000000000002
100
AcDbArc
 50
348.1896851042
 51
71.8103148958
  0
ARC
  5
112
330
1F
100
AcDbEntity
  8
0
  6
CONTINUOUS
 62
     7
100
AcDbCircle
 10
-280.064577803
 20
-12.1562986524
 30
0.0
 40
35.00000000000018
100
AcDbArc
 50
311.8103148958
 51
348.1896851042
  0
ARC
  5
113
330
1F
100
AcDbEntity
  8
0
  6
CONTINUOUS
 62
     7
100
AcDbCircle
 10
-260.064577803
 20
-34.5169784274
 30
0.0
 40
5.0
100
AcDbArc
 50
270.0
 51
311.8103148958
  0
CIRCLE
  5
114
330
1F
100
AcDbEntity
  8
0
  6
CONTINUOUS
 62
     7
100
AcDbCircle
 10
-260.064577803
 20
-23.6593554027
 30
0.0
 40
8.599999999999966
  0
LINE
  5
115
330
1F
100
AcDbEntity
  8
0
  6
CONTINUOUS
 62
     7
100
AcDbLine
 10
-345.064577803
 20
-39.5169784274
 30
0.0
 11
-345.064577803
 21
-11.7973148038
 31
0.0
  0
CIRCLE
  5
116
330
1F
100
AcDbEntity
  8
0
  6
CONTINUOUS
 62
     7
100
AcDbCircle
 10
-260.064577803
 20
-23.6593554027
 30
0.0
 40
8.099999999999966
  0
ARC
  5
117
330
1F
100
AcDbEntity
  8
0
  6
CONTINUOUS
 62
     7
100
AcDbCircle
 10
-250.6996610719
 20
-18.2964668406
 30
0.0
 40
10.00000000000001
100
AcDbArc
 50
348.1896851042
 51
71.8103148958
  0
LINE
  5
118
330
1F
100
AcDbEntity
  8
0
  6
CONTINUOUS
 62
     7
100
AcDbLine
 10
-240.9113554949
 20
-20.34318957
 30
0.0
 11
-245.8055082834
 21
-19.3198282053
 31
0.0
  0
LINE
  5
119
330
1F
100
AcDbEntity
  8
0
  6
CONTINUOUS
 62
     7
100
AcDbLine
 10
-247.5780221616
 20
-8.7961841862
 30
0.0
 11
-249.1388416168
 21
-13.5463255134
 31
0.0
  0
ARC
  5
11A
330
1F
100
AcDbEntity
  8
0
  6
CONTINUOUS
 62
     7
100
AcDbCircle
 10
-260.064577803
 20
-46.7973148038
 30
0.0
 40
40.00000000000015
100
AcDbArc
 50
71.8103148958
 51
90.0
  0
ARC
  5
11B
330
1F
100
AcDbEntity
  8
0
  6
CONTINUOUS
 62
     7
100
AcDbCircle
 10
-280.064577803
 20
-12.1562986524
 30
0.0
 40
40.00000000000018
100
AcDbArc
 50
311.8103148958
 51
348.1896851042
  0
LINE
  5
11C
330
1F
100
AcDbEntity
  8
0
  6
CONTINUOUS
 62
     7
100
AcDbLine
 10
-253.3979111363
 20
-41.9705383524
 30
0.0
 11
-256.7312444697
 21
-38.2437583899
 31
0.0
  0
ARC
  5
11D
330
1F
100
AcDbEntity
  8
0
  6
CONTINUOUS
 62
     7
100
AcDbCircle
 10
-260.064577803
 20
-34.5169784274
 30
0.0
 40
10.00000000000001
100
AcDbArc
 50
270.0
 51
311.8103148958
  0
CIRCLE
  5
11E
330
1F
100
AcDbEntity
  8
0
  6
CONTINUOUS
 62
     7
100
AcDbCircle
 10
-260.064577803
 20
-23.6593554027
 30
0.0
 40
6.999999999999972
  0
CIRCLE
  5
11F
330
1F
100
AcDbEntity
  8
0
  6
CONTINUOUS
 62
     7
100
AcDbCircle
 10
-260.064577803
 20
-23.6593554027
 30
0.0
 40
7.999999999999972
  0
LINE
  5
120
330
1F
100
AcDbEntity
  8
0
  6
CONTINUOUS
 62
     7
100
AcDbLine
 10
-260.064577803
 20
-19.6179035184
 30
0.0
 11
-263.564577803
 21
-21.6386294606
 31
0.0
  0
LINE
  5
121
330
1F
100
AcDbEntity
  8
0
  6
CONTINUOUS
 62
     7
100
AcDbLine
 10
-263.564577803
 20
-21.6386294606
 30
0.0
 11
-263.564577803
 21
-25.6800813449
 31
0.0
  0
LINE
  5
122
330
1F
100
AcDbEntity
  8
0
  6
CONTINUOUS
 62
     7
100
AcDbLine
 10
-260.064577803
 20
-27.7008072871
 30
0.0
 11
-263.564577803
 21
-25.6800813449
 31
0.0
  0
LINE
  5
123
330
1F
100
AcDbEntity
  8
0
  6
CONTINUOUS
 62
     7
100
AcDbLine
 10
-256.564577803
 20
-25.6800813449
 30
0.0
 11
-260.064577803
 21
-27.7008072871
 31
0.0
  0
LINE
  5
124
330
1F
100
AcDbEntity
  8
0
  6
CONTINUOUS
 62
     7
100
AcDbLine
 10
-256.564577803
 20
-25.6800813449
 30
0.0
 11
-256.564577803
 21
-21.6386294606
 31
0.0
  0
LINE
  5
125
330
1F
100
AcDbEntity
  8
0
  6
CONTINUOUS
 62
     7
100
AcDbLine
 10
-260.064577803
 20
-19.6179035184
 30
0.0
 11
-256.564577803
 21
-21.6386294606
 31
0.0
  0
ARC
  5
126
330
1F
100
AcDbEntity
  8
0
  6
CONTINUOUS
 62
     7
100
AcDbCircle
 10
-260.064577803
 20
-23.6593554027
 30
0.0
 40
3.500000000000001
100
AcDbArc
 50
180.0
 51
240.0
  0
ARC
  5
127
330
1F
100
AcDbEntity
  8
0
  6
CONTINUOUS
 62
     7
100
AcDbCircle
 10
-260.064577803
 20
-23.6593554027
 30
0.0
 40
3.500000000000057
100
AcDbArc
 50
0.0
 51
60.0
  0
ARC
  5
128
330
1F
100
AcDbEntity
  8
0
  6
CONTINUOUS
 62
     7
100
AcDbCircle
 10
-260.064577803
 20
-23.6593554027
 30
0.0
 40
3.500000000000001
100
AcDbArc
 50
240.0
 51
300.0
  0
ARC
  5
129
330
1F
100
AcDbEntity
  8
0
  6
CONTINUOUS
 62
     7
100
AcDbCircle
 10
-260.064577803
 20
-23.6593554027
 30
0.0
 40
3.500000000000057
100
AcDbArc
 50
300.0
 51
0.0
  0
ARC
  5
12A
330
1F
100
AcDbEntity
  8
0
  6
CONTINUOUS
 62
     7
100
AcDbCircle
 10
-260.064577803
 20
-23.6593554027
 30
0.0
 40
3.500000000000001
100
AcDbArc
 50
120.0
 51
180.0
  0
ARC
  5
12B
330
1F
100
AcDbEntity
  8
0
  6
CONTINUOUS
 62
     7
100
AcDbCircle
 10
-260.064577803
 20
-23.6593554027
 30
0.0
 40
3.500000000000004
100
AcDbArc
 50
60.0
 51
120.0
  0
CIRCLE
  5
12C
330
1F
100
AcDbEntity
  8
0
  6
CONTINUOUS
 62
     7
100
AcDbCircle
 10
534.496448314
 20
-23.6593554027
 30
0.0
 40
6.999999999999999
  0
CIRCLE
  5
12D
330
1F
100
AcDbEntity
  8
0
  6
CONTINUOUS
 62
     7
100
AcDbCircle
 10
534.496448314
 20
-23.6593554027
 30
0.0
 40
8.000000000000037
  0
LINE
  5
12E
330
1F
100
AcDbEntity
  8
0
  6
CONTINUOUS
 62
     7
100
AcDbLine
 10
538.2316575358
 20
-22.1161297542
 30
0.0
 11
535.0275803095
 21
-19.6529565039
 31
0.0
  0
LINE
  5
12F
330
1F
100
AcDbEntity
  8
0
  6
CONTINUOUS
 62
     7
100
AcDbLine
 10
535.0275803095
 20
-19.6529565039
 30
0.0
 11
531.2923710876
 21
-21.1961821524
 31
0.0
  0
LINE
  5
130
330
1F
100
AcDbEntity
  8
0
  6
CONTINUOUS
 62
     7
100
AcDbLine
 10
530.7612390921
 20
-25.2025810513
 30
0.0
 11
531.2923710876
 21
-21.1961821524
 31
0.0
  0
LINE
  5
131
330
1F
100
AcDbEntity
  8
0
  6
CONTINUOUS
 62
     7
100
AcDbLine
 10
533.9653163184
 20
-27.6657543016
 30
0.0
 11
530.7612390921
 21
-25.2025810513
 31
0.0
  0
LINE
  5
132
330
1F
100
AcDbEntity
  8
0
  6
CONTINUOUS
 62
     7
100
AcDbLine
 10
533.9653163184
 20
-27.6657543016
 30
0.0
 11
537.7005255403
 21
-26.122528653
 31
0.0
  0
LINE
  5
133
330
1F
100
AcDbEntity
  8
0
  6
CONTINUOUS
 62
     7
100
AcDbLine
 10
538.2316575358
 20
-22.1161297542
 30
0.0
 11
537.7005255403
 21
-26.122528653
 31
0.0
  0
ARC
  5
134
330
1F
100
AcDbEntity
  8
0
  6
CONTINUOUS
 62
     7
100
AcDbCircle
 10
534.496448314
 20
-23.6593554027
 30
0.0
 40
3.49999999999999
100
AcDbArc
 50
292.4482808468
 51
352.4482808468
  0
ARC
  5
135
330
1F
100
AcDbEntity
  8
0
  6
CONTINUOUS
 62
     7
100
AcDbCircle
 10
534.496448314
 20
-23.6593554027
 30
0.0
 40
3.49999999999999
100
AcDbArc
 50
232.4482808468
 51
292.4482808468
  0
ARC
  5
136
330
1F
100
AcDbEntity
  8
0
  6
CONTINUOUS
 62
     7
100
AcDbCircle
 10
534.496448314
 20
-23.6593554027
 30
0.0
 40
3.500000000000071
100
AcDbArc
 50
172.4482808468
 51
232.4482808468
  0
ARC
  5
137
330
1F
100
AcDbEntity
  8
0
  6
CONTINUOUS
 62
     7
100
AcDbCircle
 10
534.496448314
 20
-23.6593554027
 30
0.0
 40
3.500000000000071
100
AcDbArc
 50
112.4482808468
 51
172.4482808468
  0
ARC
  5
138
330
1F
100
AcDbEntity
  8
0
  6
CONTINUOUS
 62
     7
100
AcDbCircle
 10
534.496448314
 20
-23.6593554027
 30
0.0
 40
3.500000000000054
100
AcDbArc
 50
52.4482808468
 51
112.4482808468
  0
ARC
  5
139
330
1F
100
AcDbEntity
  8
0
  6
CONTINUOUS
 62
     7
100
AcDbCircle
 10
534.496448314
 20
-23.6593554027
 30
0.0
 40
3.500000000000054
100
AcDbArc
 50
352.4482808468
 51
52.4482808468
  0
LINE
  5
13A
330
1F
100
AcDbEntity
  8
0
  6
CONTINUOUS
 62
     7
100
AcDbLine
 10
534.496448314
 20
-39.5169784274
 30
0.0
 11
619.496448314
 21
-39.5169784274
 31
0.0
  0
LINE
  5
13B
330
1F
100
AcDbEntity
  8
0
  6
CONTINUOUS
 62
     7
100
AcDbLine
 10
619.496448314
 20
-39.5169784274
 30
0.0
 11
619.496448314
 21
-44.5169784274
 31
0.0
  0
LINE
  5
13C
330
1F
100
AcDbEntity
  8
0
  6
CONTINUOUS
 62
     7
100
AcDbLine
 10
619.496448314
 20
-44.5169784274
 30
0.0
 11
534.496448314
 21
-44.5169784274
 31
0.0
  0
LINE
  5
13D
330
1F
100
AcDbEntity
  8
0
  6
CONTINUOUS
 62
     7
100
AcDbLine
 10
534.496448314
 20
-39.5169784274
 30
0.0
 11
534.496448314
 21
-44.5169784274
 31
0.0
  0
LINE
  5
13E
330
1F
100
AcDbEntity
  8
0
  6
CONTINUOUS
 62
     7
100
AcDbLine
 10
619.496448314
 20
-11.7973148038
 30
0.0
 11
534.496448314
 21
-11.7973148038
 31
0.0
  0
LINE
  5
13F
330
1F
100
AcDbEntity
  8
0
  6
CONTINUOUS
 62
     7
100
AcDbLine
 10
534.496448314
 20
-11.7973148038
 30
0.0
 11
534.496448314
 21
-6.7973148038
 31
0.0
  0
LINE
  5
140
330
1F
100
AcDbEntity
  8
0
  6
CONTINUOUS
 62
     7
100
AcDbLine
 10
534.496448314
 20
-6.7973148038
 30
0.0
 11
619.496448314
 21
-6.7973148038
 31
0.0
  0
LINE
  5
141
330
1F
100
AcDbEntity
  8
0
  6
CONTINUOUS
 62
     7
100
AcDbLine
 10
619.496448314
 20
-6.7973148038
 30
0.0
 11
619.496448314
 21
-11.7973148038
 31
0.0
  0
ARC
  5
142
330
1F
100
AcDbEntity
  8
0
  6
CONTINUOUS
 62
     7
100
AcDbCircle
 10
554.496448314
 20
-12.1562986524
 30
0.0
 40
35.00000000000009
100
AcDbArc
 50
191.8103148958
 51
228.1896851042
  0
ARC
  5
143
330
1F
100
AcDbEntity
  8
0
  6
CONTINUOUS
 62
     7
100
AcDbCircle
 10
525.1315315829
 20
-18.2964668406
 30
0.0
 40
5.000000000000043
100
AcDbArc
 50
108.1896851042
 51
191.8103148958
  0
ARC
  5
144
330
1F
100
AcDbEntity
  8
0
  6
CONTINUOUS
 62
     7
100
AcDbCircle
 10
534.496448314
 20
-46.7973148038
 30
0.0
 40
35.00000000000014
100
AcDbArc
 50
90.0
 51
108.1896851042
  0
ARC
  5
145
330
1F
100
AcDbEntity
  8
0
  6
CONTINUOUS
 62
     7
100
AcDbCircle
 10
534.496448314
 20
-34.5169784274
 30
0.0
 40
5.0
100
AcDbArc
 50
228.1896851042
 51
270.0
  0
CIRCLE
  5
146
330
1F
100
AcDbEntity
  8
0
  6
CONTINUOUS
 62
     7
100
AcDbCircle
 10
534.496448314
 20
-23.6593554027
 30
0.0
 40
8.600000000000023
  0
LINE
  5
147
330
1F
100
AcDbEntity
  8
0
  6
CONTINUOUS
 62
     7
100
AcDbLine
 10
619.496448314
 20
-39.5169784274
 30
0.0
 11
619.496448314
 21
-11.7973148038
 31
0.0
  0
CIRCLE
  5
148
330
1F
100
AcDbEntity
  8
0
  6
CONTINUOUS
 62
     7
100
AcDbCircle
 10
534.496448314
 20
-23.6593554027
 30
0.0
 40
8.100000000000023
  0
ARC
  5
149
330
1F
100
AcDbEntity
  8
0
  6
CONTINUOUS
 62
     7
100
AcDbCircle
 10
534.496448314
 20
-34.5169784274
 30
0.0
 40
10.0
100
AcDbArc
 50
228.1896851042
 51
270.0
  0
LINE
  5
14A
330
1F
100
AcDbEntity
  8
0
  6
CONTINUOUS
 62
     7
100
AcDbLine
 10
531.1631149806
 20
-38.2437583899
 30
0.0
 11
527.8297816473
 21
-41.9705383524
 31
0.0
  0
LINE
  5
14B
330
1F
100
AcDbEntity
  8
0
  6
CONTINUOUS
 62
     7
100
AcDbLine
 10
523.5707121277
 20
-13.5463255134
 30
0.0
 11
522.0098926726
 21
-8.7961841862
 31
0.0
  0
ARC
  5
14C
330
1F
100
AcDbEntity
  8
0
  6
CONTINUOUS
 62
     7
100
AcDbCircle
 10
534.496448314
 20
-46.7973148038
 30
0.0
 40
40.00000000000014
100
AcDbArc
 50
90.0
 51
108.1896851042
  0
ARC
  5
14D
330
1F
100
AcDbEntity
  8
0
  6
CONTINUOUS
 62
     7
100
AcDbCircle
 10
554.496448314
 20
-12.1562986524
 30
0.0
 40
40.00000000000017
100
AcDbArc
 50
191.8103148958
 51
228.1896851042
  0
LINE
  5
14E
330
1F
100
AcDbEntity
  8
0
  6
CONTINUOUS
 62
     7
100
AcDbLine
 10
520.2373787944
 20
-19.3198282053
 30
0.0
 11
515.3432260059
 21
-20.34318957
 31
0.0
  0
ARC
  5
14F
330
1F
100
AcDbEntity
  8
0
  6
CONTINUOUS
 62
     7
100
AcDbCircle
 10
525.1315315829
 20
-18.2964668406
 30
0.0
 40
10.0000000000001
100
AcDbArc
 50
108.1896851042
 51
191.8103148958
  0
ENDSEC
  0
SECTION
  2
OBJECTS
  0
DICTIONARY
  5
C
330
0
100
AcDbDictionary
  3
ACAD_GROUP
350
D
  3
ACAD_MLINESTYLE
350
17
  3
ACAD_SCALELIST
350
47
  3
DWGPROPS
350
150
  0
DICTIONARY
  5
D
102
{ACAD_REACTORS
330
C
102
}
330
C
100
AcDbDictionary
  0
DICTIONARY
  5
17
102
{ACAD_REACTORS
330
C
102
}
330
C
100
AcDbDictionary
  3
STANDARD
350
18
  0
DICTIONARY
  5
47
102
{ACAD_REACTORS
330
C
102
}
330
C
100
AcDbDictionary
  0
XRECORD
  5
150
102
{ACAD_REACTORS
330
C
102
}
330
C
100
AcDbXrecord
  1
DWGPROPS COOKIE
  2

  3

  4

  6

  7

  8
Pedro.Queiros
  9

300
=
301
=
302
=
303
=
304
=
305
=
306
=
307
=
308
=
309
=
 40
0.0
 41
2459180.645163889
 42
2459180.64516419
  1

 90
        0
  0
MLINESTYLE
  5
18
102
{ACAD_REACTORS
330
17
102
}
330
17
100
AcDbMlineStyle
  2
Standard
 70
     0
  3

 62
   256
 51
90.0
 52
90.0
 71
     2
 49
0.5
 62
   256
  6
BYLAYER
 49
-0.5
 62
   256
  6
BYLAYER
  0
ENDSEC
  0
EOF
